Oops, an error
Loading. Please wait.

Annie Waits Bass Tab

648 views 1 this week
no commentswrite comment
1 2 3 4 5
please rate
add to favorites
launch autoscroll
font size
0
reset
guitar tuner
Autoscroll
slow
fast
+/-
esc
set tempo
stop
Help us to improve Ultimate-Guitar.com Take our survey!
×
Author
(Starts after "And he waits for the last...time") (0:43)
G--------------/------2---5---2-------0---4---0----------|
D--------------/----2---2---2---2----0---0---0---0-------|
A--3-33---(8x)-/--0--------------------------------------|
E--------------/------------------3----------------------|

"Its getting late..." (1:04)
G----------------------------------------------------------------|
D--------------3-33--5-55--7-77----7-----------------------------|
A-5-55--5-55---------------------7--0-5-55-------------3-33-3-33-|
E-------------------------------------------1-11--3-33-----------|

 (2X) "Headlights crest the hills..." (1:23)
G---------------------------------------------------/------------------------|
D------------------------------------0--------------/------------------------|
A-------55-555--5--------33-3333------------11-/-111-4\----------33-3335-----|
E-33-333--3---------11-111--1------------33-333-3---/-------11 111-1---------|

"Annie waits for the last time" (1:52)  (repeat 2nd time through)
G---------------------------------------------------------------------|
D---------------------------------------------------------------------|
A-3-33-------3-3-----3-33----3-33------3-3----------------------------|
E------3-11------331-------------3-11---------------------------------|

"And he says" (2:06)                                        Back to beginning
G-------------------------------5-------------------5------------------------|
D-----7---------3-------------5--5----------7--7---3--3-----5--5-------------|
A-0-7--7------3--3-----------3---------------7--7------3---3--3--------------|
E-----------1------------------------3-33-------------------------3-33--3-33-|
Suggest correction
Give kudos to tab author, rate the tab!
1 2 3 4 5
comments
print report bad tab
guest
You may want to rate the tab now too:
select rating
Please do not post tabs as comments. Select "correction" instead!