Oops, an error
Loading. Please wait.

The Luckiest tab

version 2
version 2

Whole song

Interactive

172 views 1 this week
no commentswrite comment
1 2 3 4 5
2 more votes to show rating
add to favorites
×
Save as Personal and add changes to this tab that will be seen only by you. Learn more ›
×
You can save this tab as Personal to edit and correct it or add notes. All changes will be seen only by you. Learn more »
launch autoscroll
font size
0
reset
how to read this tab
guitar tuner
edit
Autoscroll
slow
fast
+/-
esc
set tempo
stop
----------------------------------------------------------------------------
                         THE LUCKIEST - Ben Folds
----------------------------------------------------------------------------
Tabbed by: D. Bunting
Email:bunting_ph5@yahoo.com

Tuning: Drop D

**Note** Email with questions/comments/changes/suggestions/improvements!!!)

INTRO

       D             G          D             A
e------------2------------------------2-------------------------------------|
B---------------3------------------------3-------5--------------------------|
G-----------------2-----7-4----------------2-------6------------------------|
D----------4--------0---------------4----------------7----------------------|
A--------0------------5-----------0----------7-7----------------------------|
E------0-------------5----------0-------------7-----------------------------|


      Bm          F#m            G             D/A      A
e---------------------------------------------------------------------------|
B---------12---12-10-------10----8------8------7-----7--3-------------------|
G--------11---11--------------------------7-------------3-------------------|
D-----9-12---12--------7-----7-------9------9-----------3-------------------|
A-----------------9---7--------7-7--7----------5---5----0-------------------|
E--------------------7-------------7-------------7--------------------------|


VERSE

  I     don't get...     things...     first time
  D            A          D             G
e-----------2----------0-------2--------------------------------------------|
B-------------------3----------------3--------------------------------------|
G-------2---------3--------------2-----------4------------------------------|
D-----0---------3------------0-------------5--------------------------------|
A---0---------0------------0-------0-----5----------------------------------|
E-0----------------------0-------------5------------------------------------|


  In   fact       I am told      that alot
       D               Bm              C
e------------2--------------------0-----------------------------------------|
B------------------3--3-----3-------3-1-----1--------1-----1----------------|
G--------------2--------4-----4---------0-----0----------0---0--------------|
D----------0--------------4-----4---------2-----2-0----2-------2-0----------|
A--------0-------0----2---------------3--------------3----------------------|
E------0--------------------------------------------------------------------|

 Now I know   all the wrong turns  & stumbles and    falls brt me
       A               A(Cm)          D              G(A)
e--------------------------------------2------------------------------------|
B------2-----2-----2---2-----2-----2---------3--------------0---3-----------|
G--------2-----2---------2-----2--------------------2-4---------------------|
D----------2-----2---------2-----2-------0-----0--------5-----5-------------|
A------0---------------4---------------0---0-----0--------5-----------------|
E-----------------------------------------------------5---------------------|


       here
       D                   Bm              A   
e------------2----------5-7-----7-------------------------------------------|
B------3------------5/7-----0-----0---5-3-2-----2-----2-2-----3-----5-------|
G--------2-----2--------------0-----0---------------------------------------|
D----------0-----0--------5-----------------0-----0-------0-----0-----------|
A------0----------------------------------0---0-----0---0---0-----0---------|
E---------------------------------------------------------------------------|

       And where  was I   before the day...          saw your lovely
       Bm             G(A)           Bm              E
e------------------------------------------2--------------------------------|
B------3-----3-----3-----------------3-----------3--------------------------|
G--------4-----4------4-----4-----4----4-----4-------1-----2-----4----------|
D----------4-----4------5-----5----------4-------------2--------------------|
A------2------------------5-----5----2---------2---------2---2--------------|
E---------------------5------------------------------2-----2---2-2----------|

       face     now I see it    everyday
       A              F#m(G)         G(A)        A G(A)                     
e---------------------------------------------------------------------------|
B------2-----2--------------------------------------------------------------|
G------------------2--2-----4-----2--4-----4-----6-4-----4-----4------------|
D--------2-----2------------------------------------------------------------|
A------0---0-----0------4-----4--------5-----5-------5-----5----------------|
E---------------------4---4-----4----5---5-----5-7-5---5-----5--------------|

   and I              know
       D              A
e------------2--------------------------------------------------------------|
B------3-----------3--2-----------------------------------------------------|
G--------2-----3-------------0----------------------------------------------|
D----------0------------2---------------------------------------------------|
A------0---------0----0---0-------------------------------------------------|
E---------------------------------------------------------------------------|


CHORUS

  that I            am                I              am
       D            A                 Bm             F#m(G)
e------2------------------------------------2-------------------------------|
B------3-----3---0--2----3-----5------3-----------3-------------------------|
G------2------2-----0-----------------4-4-----4------2-----4---6------------|
D------0---0---0----0-2----2----------4---4----------4----------------------|
A---------0---------0--0-----0--------2---------2------4-----4--------------|
E--------0-------------------------------------------4--4-----4-------------|

     
       I             am    the luckiest     
       G             D    A    D               A
e------------------3-2---------------2--------------------5-----------------|
B------------3---------3--2----3-------------3-2---3---5--------------------|
G------4------------------2------2------------------------------------------|
D------5-5-----5-----0----2--------0-------4-----2---2----------------------|
A----------5--------------0----0---------0-----0---0---0--------------------|
E------5---------5---------------------0------------------------------------|


INTRO (repeat)
VERSE (2)
CHORUS


BRIDGE (modified)

           I love you more..have           fndaway to say  to her
       Em              Bm                  A   C#     D      G(A)
e-----------------------------5----7------------------2----------------------|
B------0----0-----0---------3---3--7----3--5-3-8---------3-------------------|
G--------0----0-----------0--------7----4--2---6-------2--2-2-4--4-----------|
D----------2----2---2---2-----------9---4--2------7-----0--0---5-------------|
A------2--------------2------------9-9\-2----------7--0---------5------------|
E------------------------------------------------7------------5--------------|


VERSE (3)
CHORUS

OUTRO

...the luckiest
       D              F#m            G             D/A      A          D
e----------------------------------------------------------------------2-----|
B------12----12--12---10-------10----8------8------7-----7--3-----2-0--3--19+|
G--------11-------11--------------------------7-------------3----------2--19+|
D------12--12------12------7-----7-------9------9-----------3--3/4-----------|
A---------------------9---7--------7-7--7----------5---5----0----------------|
E------------------------7-------------7-------------7-----------------0-----|


**********************************************

| /   slide up
| \   slide down
| +   harmonic

**********************************************

            
            
Suggest correction
Creating personal tab
Creating personal tab
You can edit any tab online and save it as your Personal.

You can edit, replace or remove any tab part or add personal notes – all changes will be seen only by you.

Personal tabs can be accessed anytime from any device, even offline.
Learn more »
Give kudos to tab author, rate the tab!
1 2 3 4 5
comments
print report bad tab
guest
You may want to rate the tab now too:
select rating
Wanna post a correction for this tab? Suggest correction