Oops, an error
Loading. Please wait.

Lady Adelaide tab

version 2
version 2

Whole song

112 views 1 this week
no commentswrite comment
1 2 3 4 5
3 more votes to show rating
add to favorites
×
Save as Personal and add changes to this tab that will be seen only by you. Learn more ›
×
You can save this tab as Personal to edit and correct it or add notes. All changes will be seen only by you. Learn more »
launch autoscroll
font size
0
reset
how to read this tab
guitar tuner
edit
Autoscroll
slow
fast
+/-
esc
set tempo
stop
Tuning:Standard Capo 3

Riff:

e|-------0-------------------------------------------------------------------|
B|-0--2-----2--0-----2--0----------------------------------------------------|
G|----------------1-----------1----------------------------------------------|
D|-------------------------4--2----------------------------------------------| X4
A|----------------------------2----------------------------------------------|
E|---------------------------------------------------------------------------|


Riff with pluck/pick E-chord pattern
e|----------0----------------------------------------------------------------|
B|---0--2---2-2---0-----2-0--------------------------------------------------|
G|---1------1-----1-1---1-------1--------------------------------------------|
D|---2------2-----2-----2-----4-2--------------------------------------------| X4
A|-2-2----2-2---2-2---2-2---2---2--------------------------------------------|
E|---------------------------------------------------------------------------|

e|---------------------------------------------------------------------------|
B|---------------------------------------------------------------------------| 
G|-2/6----2------------------------------------------------------------------|  
D|-2/6----4------------------------------------------------------------------|
A|--------4---4--2--0--------------------------------------------------------|
E|---------------------4--2--0-----------------------------------------------|

e|-------0-------------------------------------------------------------------|
B|-0--2-----2--0-----2--0----------------------------------------------------|
G|----------------1-----------1----------------------------------------------|
D|-------------------------4--2----------------------------------------------| X4
A|----------------------------2----------------------------------------------|
E|---------------------------------------------------------------------------|

e|---------------------------------------------------------------------------|
B|---------------------------------------------------------------------------| 
G|-2/6----2------------------------------------------------------------------|  
D|-2/6----4------------------------------------------------------------------|
A|--------4---4--2--0--------------------------------------------------------|
E|---------------------4--2--0-----------------------------------------------|

e|-2-----------2-------------------------------------------------------------|
B|-2-----------2-------------------------------------------------------------|
G|-2---2---1---4-------------------------------------------------------------| Strumming for the last 2 verses
D|-4---2---2---4-------------------------------------------------------------|
A|-4-------2---2-------------------------------------------------------------|
E|-2-----------2-------------------------------------------------------------|


Lady Adelaide shows no emotion
Colder than a wave in the Arctic Ocean
She waited all her years for those 3 words
That never reached her ears
They just went unheard

Porcelain and frail, slender shoulders
A breeze of gusty gale could knock her over
She knew a handsome man who she gave her body
But he did not take her hand
And her heart broke softly

Now she's a bird with broken wing
She likes the ideas of things
More than what they are bound to bring

Lady Adelaide
And with her beauty in slow fade
She is so fearful the will say
That she is a bed that's been unmade
Lady Adelaide

************************************

| /   slide up
| \   slide down
| h   hammer-on
| p   pull-off
| ~   vibrato
| +   harmonic
| x   Mute note
| b   Bend
| pb  Pre-bend
| br  Bend release
| pbr Pre-bend release
| brb Bend release bend

************************************

            
            
Suggest correction
Creating personal tab
Creating personal tab
You can edit any tab online and save it as your Personal.

You can edit, replace or remove any tab part or add personal notes – all changes will be seen only by you.

Personal tabs can be accessed anytime from any device, even offline.
Learn more »
Give kudos to tab author, rate the tab!
1 2 3 4 5
comments
print report bad tab
guest
You may want to rate the tab now too:
select rating
Wanna post a correction for this tab? Suggest correction