Oops, an error
Loading. Please wait.

Amen Omen Chords

version 2
version 2

Whole song

Interactive

18,317 views 12 this week
no commentswrite comment
1 2 3 4 5
2 more votes to show rating
add to favorites
×
Save as Personal and add changes to this tab that will be seen only by you. Learn more ›
×
You can save this tab as Personal to edit and correct it or add notes. All changes will be seen only by you. Learn more »
save as personal
new!
launch autoscroll
font size
0
reset
transpose
0
reset
display chords
guitar tuner
Autoscroll
slow
fast
+/-
esc
set tempo
stop
Author
Difficulty
Tuning
intermediate
E A D G B E
Strumming Are these strumming patterns correct? Yes No
Intro & Verse 62 bpm
1
 
&
 
2
 
&
 
3
 
&
 
4
 
&
 
Listen
Strum pattern 2 62 bpm
1
&
2
&
3
&
4
&
Listen
Strum Pattern 3 62 bpm
1
 
&
 
2
 
&
 
3
 
&
 
4
 
&
 
Listen
----------------------------------------------------------------------------
                             Amen Omen - Ben Harper
----------------------------------------------------------------------------

Transcribed by Sooz
Email: SoozMuze@gmail.com

Tuning:EADGBe
[Chords] 
Am
F
C
G
Bb688766
Ab

[Intro]
    Am                      F                      C                    G
e|------------------------|-1----0h1--0h1---1---|--0-----------------|--3------------------||
B|--1-1---1-1--1---1---1--|-1-1--1-1--1-----1---|--1-----------------|--0------------------||
G|--2-2---2-2--2---2---2--|-2-2--2-2--2-----2---|--0-----------------|--0------------------||
D|--2-2---0h2--0-h-2---2--|-3-3--2h3--2h3---3---|--2----0-2-3-2-0-2--|--0------------------||
A|--0-0----------------0--|-3-3-------------3---|--3--3--------------|--2----0-2-3-2-0-2---||
E|------------------------|-1----0h1--0h1---1---|--------------------|--3--3---------------||

[Verse 1]
     Am                      F                      C                    G
e|------------------------|-1----0h1--0h1---1---|--0-----------------|--3------------------||
B|--1-1---1-1--1---1---1--|-1-1--1-1--1-----1---|--1-----------------|--0------------------||
G|--2-2---2-2--2---2---2--|-2-2--2-2--2-----2---|--0-----------------|--0------------------|| x4
D|--2-2---0h2--0-h-2---2--|-3-3--2h3--2h3---3---|--2----0-2-3-2-0-2--|--0------------------||
A|--0-0----------------0--|-3-3-------------3---|--3--3--------------|--2----0-2-3-2-0-2---||
E|------------------------|-1----0h1--0h1---1---|--------------------|--3--3---------------||


[Chorus]

F   C   G   Am  X2
Strum pattern 2

F   C    G    Bb       F      Ab     Bb
              Strum pattern 3 x2

[Verse 2]
     Am                      F                      C                    G
e|------------------------|-1----0h1--0h1---1---|--0-----------------|--3------------------||
B|--1-1---1-1--1---1---1--|-1-1--1-1--1-----1---|--1-----------------|--0------------------||
G|--2-2---2-2--2---2---2--|-2-2--2-2--2-----2---|--0-----------------|--0------------------|| x4
D|--2-2---0h2--0-h-2---2--|-3-3--2h3--2h3---3---|--2----0-2-3-2-0-2--|--0------------------||
A|--0-0----------------0--|-3-3-------------3---|--3--3--------------|--2----0-2-3-2-0-2---||
E|------------------------|-1----0h1--0h1---1---|--------------------|--3--3---------------||



[Chorus]

F   C   G   Am  X2
Strum pattern 2

F   C    G    Bb       F      Ab     Bb
              Strum pattern 3 x2


[Solo]

|  Am   F   |  C   G   |  F   C   G   Am   |  F   C   G   |


[Verse 3]
     Am                      F                      C                    G
e|------------------------|-1----0h1--0h1---1---|--0-----------------|--3------------------||
B|--1-1---1-1--1---1---1--|-1-1--1-1--1-----1---|--1-----------------|--0------------------||
G|--2-2---2-2--2---2---2--|-2-2--2-2--2-----2---|--0-----------------|--0------------------|| x4
D|--2-2---0h2--0-h-2---2--|-3-3--2h3--2h3---3---|--2----0-2-3-2-0-2--|--0------------------||
A|--0-0----------------0--|-3-3-------------3---|--3--3--------------|--2----0-2-3-2-0-2---||
E|------------------------|-1----0h1--0h1---1---|--------------------|--3--3---------------||
     

[Chorus Outro]

F   C   G   Am  X4

LYRICS:

[Verse 1]
Am                F               C             G
What started as a whisper, slowly turned into a scream
Am                F                C             G
Searching for an answer, where the question is unseen
Am                     F                C                       G            
I don't know where you came from, and I don't know where you've gone
Am                     F                 C                G
Old friends become old strangers between darkness and the dawn

[Chorus]
F    C     G               Am
Amen omen, will I see your face again?
F    C     G               Am             F       C        G      Bb  F  Ab  Bb
Amen omen, can I find the place within to live my life without you?

[Verse 2]
Am               F              C       G
I still hear you saying, all of life is chance
Am     F                  C             G
And is sweetest, is sweetest when at a glance
Am                   F             C                  G
But I live, I live a hundred, hundred life times in a day
      Am       F            C              G
But I die a little in every breath that I take
 
[Chorus]
F    C     G               Am
Amen omen, will I see your face again?
F    C     G               Am             F       C        G      Bb  F  Ab  Bb
Amen omen, can I find the place within to live my life without you?

[Solo]
|  Am   F   |  C   G   |  F   C   G   Am   |  F   C   G   |

[Verse 3]
Am            F       C            G
I listen to a whisper slowly drift away
Am           F       C                      G
Silence is a loudest parting word you never say
Am                F     C       G
I put, I put your world into my veins
    Am             F           C          G
And now a voiceless sympathy is all that remains

[Chorus]
F    C     G               Am
Amen omen, will I see your face again?
F    C     G               Am             F       C        G      Bb  F  Ab  Bb
Amen omen, can I find the place within to live my life without you?

[Chorus Outro]
F    C     G               Am
Amen omen, will I see your face again?
F    C     G               Am         
Amen omen, can I find the place within?
F    C     G               Am
Amen omen, will I see your face again?
F    C     G               Am         
Amen omen, can I find the strength within?


***********************************
|
| h Hammer-on
|
***********************************


============================================================================
                                **Please Note**
This file is only my interpretation of the song. You may only use this file for private
study, scholarship, or research. If you have any comments, queries or suggestions please
email me:)
Suggest correction
Give kudos to tab author, rate the tab!
1 2 3 4 5
comments
print report bad tab
guest
You may want to rate the tab now too:
select rating
Wanna post a correction for this tab? Suggest correction