Oops, an error
Loading. Please wait.

Ashes tab

version 1
version 1

Whole song

Interactive

79 views 1 this week
no commentswrite comment
1 2 3 4 5
3 more votes to show rating
add to favorites
×
Save as Personal and add changes to this tab that will be seen only by you. Learn more ›
×
You can save this tab as Personal to edit and correct it or add notes. All changes will be seen only by you. Learn more »
launch autoscroll
font size
0
reset
how to read this tab
guitar tuner
edit
Autoscroll
slow
fast
+/-
esc
set tempo
stop
I don't think the strum pattern is 100% but the chords & position sound right! Just play along 
to get the specifics. 
Any & all corrections are welcome... enjoy!

-e_b


[Intro]

e|----------------------------------------------------------------------------------------------|
B|----------------------------------------------------------------------------------------------|
G|----------------------------------------------------------------------------------------------|
D|----------------------------------------------------------------------------------------------|
A|-1h3-1----------------------------------------------------------------------------------------|
E|-------3p1------------------------------------------------------------------------------------|


[Verse 1]

      Bb      Bb          Eb         Bb         F               F            Eb          Bb      
e|------------------------3--------------------------------------------------3------------------|
B|----3-------3-----------4----------3---------------------------------------4-----------3------|
G|----3-------3-----------3----------3----------2---------------2------------3-----------3------|
D|----3-------3---------1-1--1p0-----3----------3---------------3----------1-1---1p0-----3------|
A|-1--1-----1-1---1h3-3----------3-1-1--1p0-----3---------------3--------1-----------3-1-1--1-3-|
E|------------------------------------------3-1-1-------------1-1----1h3------------------------|
   Ashes to ashes   And dust to    dust   /   That's what has become of our love and   trust

       Bb         Bb               Eb          Bb              
e|-----------------------------------3----------------------------------------------------------|
B|-----3----------3------------------4-----------3----------------------------------------------|
G|-----3----------3------------------3-----------3----------------------------------------------|
D|-----3----------3----------------1-1--1p0------3----------------------------------------------|
A|--1--1--------1-1------1h3--3-------------3--1-1--1p0-----------------------------------------|
E|------------------------------------------------------3---------------------------------------|
    Love has no direction   'Cause love has no aim    

     F        F               Eb           Bb      
e|----------------------------3---------------------|
B|----------------------------4------------3--------|
G|---2--------2---------------3------------3--------|
D|---3--------3-------------1-1--1p0-------3--------|
A|---3--------3----------1-----------3---1-1--1p0---|
E|-1-1------1-1------1h3--------------------------3-|
   Love can leave you    As fast as  she came


[Chorus]

      F          F          Bb     Bb         D7         D7          Eb     Eb
e|----------------------------------------------------------------------------------------------|
B|--------------------------3------3----------7----------7-----------8------8-------------------|
G|----2----------2----------3------3----------5----------5-----------8------8-------------------|
D|----3----------3----------3------3----------7----------7-----------8------8-------------------|
A|----3----------3-------1--1---1--1-1h3-3-5--5-------5--5--------6--6---6--6-------------------|
E|-1--1-------1--1------------------------------------------------------------------------------|
   Meeting is such sweet sorrow   /  Cause someday we may have to part
        
      Eb             F  Gm Gsus2 G5                    F             Eb    Bb     
e|----------------------------------------------------------------------------------------------|
B|----8--------------10--11-10---8-10-11-10---8-10----10-------------8--------------------------|
G|----8--------------10--12-12--12-12-12-12--12-12----10-------------8-----7--------------------|
D|----8--------------10--12-12--12-12-12-12--12-12----10-------------8-----8--------------------|
A|-6--6-----------8---8--10-10--10-10-10-10--10-10--8--8---------6---6-----8---6-5--------------|
E|----------------------------------------------------------------------6--6-------8------------|
   Hush don't you make a sound                   /  You're gonna let me down
        

[Verse 2]

      Bb         Bb         Eb         Bb         F               F           Eb          Bb      
e|--------------------------3-------------------------------------------------3-------------------|
B|----3----------3----------4----------3--------------------------------------4-----------3-------|
G|----3----------3----------3----------3----------2---------------2-----------3-----------3-------|
D|----3----------3--------1-1--1p0-----3----------3---------------3---------1-1---1p0-----3-------|
A|-1--1--------1-1--1h3-3----------3-1-1--1p0-----3---------------3-------1-----------3---1---1-3-|
E|--------------------------------------------3-1-1-------------1-1-1h3---------------------------|
   Good things come    To those who  wait / But good things are gone   From those who are late

      Bb        Bb         Eb         Bb          F           F            Eb          Bb      
e|-------------------------3-----------------------------------------------3--------------------|
B|----3---------3----------4----------3------------------------------------4-----------3--------|
G|----3---------3----------3----------3-----------2-----------2------------3-----------3--------|
D|----3---------3--------1-1--1p0-----3-----------3-----------3----------1-1--1p0------3--------|
A|-1--1-------1-1-1h3-3----------3--1-1--1p0------3-----------3--------1----------3----1--1p0---|
E|-------------------------------------------3--1-1---------1-1----1h3------------------------3-|
   All that I am      Is all  I can give /  But with or without you   My life I   must live


[Chorus]

      F          F          Bb     Bb         D7         D7          Eb     Eb
e|----------------------------------------------------------------------------------------------|
B|--------------------------3------3----------7----------7-----------8------8-------------------|
G|----2----------2----------3------3----------5----------5-----------8------8-------------------|
D|----3----------3----------3------3----------7----------7-----------8------8-------------------|
A|----3----------3-------1--1---1--1-1h3-3-5--5-------5--5--------6--6---6--6-------------------|
E|-1--1-------1--1------------------------------------------------------------------------------|
   Meeting is such sweet sorrow   /  Cause someday we may have to part

      Eb             F  Gm Gsus2 G5                    F             Eb    Bb     
e|----------------------------------------------------------------------------------------------|
B|----8--------------10--11-10-----10-11-10-----10----10-------------8--------------------------|
G|----8--------------10--12-12--12-12-12-12--12-12----10-------------8-----7--------------------|
D|----8--------------10--12-12--12-12-12-12--12-12----10-------------8-----8--------------------|
A|-6--6-----------8---8--10-10--10-10-10-10--10-10--8--8---------6---6-----8---6-5--------------|
E|----------------------------------------------------------------------6--6-------8------------|
   Hush don't you make a sound          /           You're gonna let me down

       F             Eb    Bb     
e|----------------------------------------------------------------------------------------------|
B|----10-------------8--------------------------------------------------------------------------|
G|----10-------------8-----7--------------------------------------------------------------------|
D|----10-------------8-----8--------------------------------------------------------------------|
A|--8--8---------6---6-----8----6-5-------------------------------------------------------------|
E|----------------------6--6--------8-6---------------------------------------------------------|
    You're gonna let me down


[Solo]

e|----------------13----------------------------------------------------------------------------|
B|-------13-13-15----13/15~---15-13-------------------------------------------------------------|
G|-12-15----------------------------15\12~---12-------------------------------------------------|
D|----------------------------------------------15-13-13\12~------------------------------------|
A|----------------------------------------------------------------------------------------------|
E|----------------------------------------------------------------------------------------------|

e|----------------------------------------------------------------------------------------------|
B|----------------------------------------------------------------------------------------------|
G|-15-14~---12----------------------------------------------------------------------------------|
D|-------------15-12----12-15~---15--------13~---13h15-13\12~-----------------------------------|
A|-------------------15----------------13-------------------------------------------------------|
E|----------------------------------15----------------------------------------------------------|

e|---------11--11/13~-------------15-13------------------13/15b~---13---------------------------|
B|-11--15--13--13/15~---15-13p11--------15-15b-13-11-13------------------13/15~-----------------|
G|-12--15-------------------------------------------------------------15------------------------|
D|----------------------------------------------------------------------------------------------|
A|----------------------------------------------------------------------------------------------|
E|----------------------------------------------------------------------------------------------|

e|--------------------------------------13/15-13~---13------------------------------------------|
B|----------13~---15-13-----------------------------------13/15~--------------------------------|
G|----12-15-------------15-12----12-15-----------------15---------------------------------------|
D|-15-------------------------15----------------------------------------------------------------|
A|----------------------------------------------------------------------------------------------|
E|----------------------------------------------------------------------------------------------|

e|----------------------------------------------------------------------------------------------|
B|-----------------------------------------13/15--11~------11-----------------------------------|
G|--------------------------------------15--------------12--------------------------------------|
D|----8-10~---8-10-12-10-12-12/15~---15-----------------------/12-8~----------------------------|
A|-10-------------------------------------------------------------------------------------------|
E|----------------------------------------------------------------------------------------------|

e|-------------------------8/10-8-8-------------------------------------------------------------|
B|-------------------7---7----------/11~------11/13-11------------------------------------------|
G|-7~------7-10-7-10---9-------------------------------13\12\10~--------------------------------|
D|------10--------------------------------------------------------------------------------------|
A|----------------------------------------------------------------------------------------------|
E|----------------------------------------------------------------------------------------------|

e|----------------------------------------------------------------------------------------------|
B|---/11~--11/13---10b---10p8p6---6/8~---8\6---8-6-8~/11~---------------------------------------|
G|-7----------------------------7------------7--------------------------------------------------|
D|----------------------------------------------------------8h10h12~\---------------------------|
A|----------------------------------------------------------------------------------------------|
E|----------------------------------------------------------------------------------------------|

e|------------------------------------------------5h6-8--8/10-8-\6\4/6~-------------------------|
B|--------------------------------------------6h8-----------------------------------------------|
G|----------------------------------------5h7---------------------------------------------------|
D|----8h10~------8h10-8-8h10b-8~---\5h7/8-------------------------------------------------------|
A|-10---------10--------------------------------------------------------------------------------|
E|----------------------------------------------------------------------------------------------|


[Verse 3]

      Bb          Bb          Eb         Bb               
e|----------------------------3-----------------------------------------------------------------|
B|----3-----------3-----------4----------3------------------------------------------------------|
G|----3-----------3-----------3----------3------------------------------------------------------|
D|----3-----------3---------1-1--1p0-----3------------------------------------------------------|
A|-1--1---------1-1---1h3-3----------3-1-1--1p0-------------------------------------------------|
E|----------------------------------------------3-----------------------------------------------|
   Living ain't easy  Since you've been gone
  
     F               F             Eb           Bb      
e|---------------------------------3-------------------|
B|---------------------------------4------------3------|
G|---2---------------2-------------3------------3------|
D|---3---------------3-----------1-1----1p0-----3------|
A|---3---------------3---------1------------3-1-1--1-3-|
E|-1-1-------------1-1-----1h3-------------------------|
   No one else can please me  Or make me feel home

      Bb              Bb          Eb         Bb            
e|--------------------------------3-------------------|
B|----3---------------3-----------4----------3--------|
G|----3---------------3-----------3----------3--------|
D|----3---------------3---------1-1--1p0-----3--------|
A|-1--1-------------1-1--1h3-3----------3--1-1--1p0---|
E|--------------------------------------------------3-|
   Forgetting ain't easy    You stay on my mind    

      Bb              Bb          Eb         Bb         
e|----------------------------------3-------------------|
B|----------------------------------4---------3---------|
G|---2--------------2---------------3---------3---------|
D|---3--------------3-------------1-1--1p0----3---------|
A|---3--------------3--------1-------------3--1--1p0----|
E|-1-1------------1-1----1h3------------------------3---|
   Thoughts of us haunt me  Can't leave them  behind


[Chorus]

      F          F          Bb     Bb         D7         D7          Eb     Eb
e|----------------------------------------------------------------------------------------------|
B|--------------------------3------3----------7----------7-----------8------8-------------------|
G|----2----------2----------3------3----------5----------5-----------8------8-------------------|
D|----3----------3----------3------3----------7----------7-----------8------8-------------------|
A|----3----------3-------1--1---1--1-1h3-3-5--5-------5--5--------6--6---6--6-------------------|
E|-1--1-------1--1------------------------------------------------------------------------------|
   Meeting is such sweet sorrow   /  Cause someday we may have to part
        
      Eb             F  Gm Gsus2 G5                  
e|----------------------------------------------------------------------------------------------|
B|----8--------------10--11-10---8-10-11-10---8-10-11-10---8-10-11------------------------------|
G|----8--------------10--12-12--12-12-12-12--12-12-12-12--12-12-12------------------------------|
D|----8--------------10--12-12--12-12-12-12--12-12-12-12--12-12-12------------------------------|
A|-6--6-----------8---8--10-10--10-10-10-10--10-10-10-10--10-10-10------------------------------|
E|----------------------------------------------------------------------------------------------|
   Hush don't you make a sound                   



************************************

| h   Hammer-on
| p   Pull-off
| b   Bend
| /   Slide up
| \   Slide down
| ~   Vibrato

************************************

            
            
Suggest correction
Creating personal tab
Creating personal tab
You can edit any tab online and save it as your Personal.

You can edit, replace or remove any tab part or add personal notes – all changes will be seen only by you.

Personal tabs can be accessed anytime from any device, even offline.
Learn more »
Give kudos to tab author, rate the tab!
1 2 3 4 5
comments
print report bad tab
guest
You may want to rate the tab now too:
select rating
Wanna post a correction for this tab? Suggest correction