Oops, an error
Loading. Please wait.

Fight Outta You Tab

version 1
version 1

Whole song

12,722 views 9 this week
2 commentsread comments
1 2 3 4 5
accurate
x 6
add to favorites
launch autoscroll
font size
0
reset
how to read this tab
guitar tuner
Autoscroll
slow
fast
+/-
esc
set tempo
stop
Help us to improve Ultimate-Guitar.com Take our survey!
×
Author
Difficulty
Band: Ben Harper And The Innocent Criminals

title: "Fight Outta You"

album: "Lifeline"(2007)

tabbed by Damiano Fassari.


intro:

e|------------------------------------------------|
B|---4-4-4--2---4-4-4-2-------------------------2-|
G|---4-4-4--2---4-4-4---4p2-------2---2---2---2-2-|
D|---4-4-4--2---4-4-4-------4p2---4-x-4---4-x-4-2-|
A|-0----------0-------------------4-x-4---4-x-4---|
E|------------------------------2-2-x-2-2-2-x-2---|

verse:

|------------------------------------------------|
|---4-4-4--2---4-4-4-2-------------------------2-|
|---4-4-4--2---4-4-4---4p2-------2---2---2---2-2-|
|---4-4-4--2---4-4-4-------4p2---4-x-4---4-x-4-2-|
|-0----------0-------------------4-x-4---4-x-4---|
|------------------------------2-2-x-2-2-2-x-2---|

chorus:

|---------------------------------------------------------|
|---10---7-7-7-7-7-7-7-7-7-7-7-7--2-2-2-2-2-2-2-2-2-2-2-2-|
|-9----9-7-7-7-7-7-7-7-7-7-7-7-7--3-3-3-3-3-3-3-3-3-3-3-3-|
|--------7-7-7-7-7-7-7-7-7-7-7-7--4-4-4-4-4-4-4-4-4-4-4-4-|
|--------5-5-5-5-5-5-5-5-5-5-5-5--4-4-4-4-4-4-4-4-4-4-4-4-|
|--------5-5-5-5-5-5-5-5-5-5-5-5--2-2-2-2-2-2-2-2-2-2-2-2-|

outro:

|------------------------------------------------|
|---4-4-4--2---4-4-4-2-------------------------2-|
|---4-4-4--2---4-4-4---4p2-------2---2---2---2-2-|
|---4-4-4--2---4-4-4-------4p2---4-x-4---4-x-4-2-|
|-0----------0-------------------4-x-4---4-x-4---|
|------------------------------2-2-x-2-2-2-x-2---|


order:

-intro  x2
-verse  x4
-chorus x4
-verse  x4
-chorus x4
-verse  x4
-chorus x4 (Without voice)
-outro until the end 
Suggest correction
comments
print report bad tab
2 comments total.
+3 reply
Stroem 281 wrote on September 30 2008, 01:32 pm

i would say the verse goes like this:

e|------------------------------------------------|
B|--------------------2-------------------------2-|
G|---4-4-4--2---4-4-4---4p2-------2---2---2---2-2-|
D|---2-2-2--2---2-2-2-------4p2---4-x-4---4-x-4-2-|
A|-0----------0-------------------4-x-4---4-x-4---|
E|------------------------------2-2-0-2-2-2-0-2---|

0 reply
SaiNt adEL #13 186 wrote on July 9 2009, 01:13 am

thank you stroem! i was hoping someone else would notice that! i agree!

guest
You may want to rate the tab now too:
select rating
Wanna post a correction for this tab? Suggest correction