Oops, an error
Loading. Please wait.

Fool For A Lonesome Train Tab

version 1
version 1

Whole song

2,412 views 1 this week
no commentswrite comment
1 2 3 4 5
please rate
add to favorites
launch autoscroll
font size
0
reset
how to read this tab
guitar tuner
Autoscroll
slow
fast
+/-
esc
set tempo
stop
Help us to improve Ultimate-Guitar.com Take our survey!
×
Author
Transcribed by: Jon Kramer
Standard tuning


Intro:

e|---3--3--------------------3--3--3-|
B|---1--1--------------------1--1--1-|
G|---0--0--------------------0--0--0-|
D|---2--2----------0-0h2-0---2--2--2-|
A|---3--3----2-0h2-----------3--3--3-|
E|---x--x----3---------------x--x--x-|

Verse:

G, D, Em
G, D, Em, A
G, D, Em

Lead to chorus:

F, C, D

Chorus:

C, G, D then filler: A|------0-2-(3)-| and back to C
                     E|--0-3---------|

Bridge:

Em, C, Em, A, C, D

Filler after bridge to Chorus:

D|------0---|
A|--0h2-----|
E|----------|
Suggest correction
Give kudos to tab author, rate the tab!
1 2 3 4 5
comments
print report bad tab
guest
You may want to rate the tab now too:
select rating
Wanna post a correction for this tab? Suggest correction