Oops, an error
Loading. Please wait.

Forever Tab

version 1
version 1

Whole song

Interactive

153,885 views 147 this week
no commentswrite comment
1 2 3 4 5
accurate
x 8
add to favorites
launch autoscroll
font size
0
reset
how to read this tab
guitar tuner
Autoscroll
slow
fast
+/-
esc
set tempo
stop
Help us to improve Ultimate-Guitar.com Take our survey!
×
The song is basically fingerpicked variations on these chords: F, Am, G, C


[Intro]

    Am     F     G        Am              C     F     G
e|---------------3--3---------------|------------------------------|
B|--0h1----1-----0--0-----0h1p0-----|--0---1-----1---------0-------|
G|--2------2-----0--0----------2----|--0---------2--------0--------|
D|--2------3--------------------2---|------2-----3-------0---------|
A|----------------------------------|--0---3------------2----------|
E|---------------3--3---------------|------------------3-----------|


[Verse]

    C     F      G        Am
e|---------------3--3---------------|
B|--1-----1------0--0-----0h1p0-----|
G|--------2------0--0----------2----|
D|--2-----3---------------------2---|
A|--3-------------------------------|
E|---------------3--3---------------|
  Not talkin' bout a year........


[Chorus]

                  C     G      Am       G
              e|--------3---------------3-----|
              B|--1-----0------1p0------0-----|
              G|--2-----0---------2-----0-----|
              D|------------------------------|
              A|--3---------------------------|
              E|--------3---------------3-----|
 So give me your, forever..


[Verse]

C F G Am
Not talkin' bout a year, no not three or four

I don't want that kind of forever in my life anymore

Forever always seems to be around when it begins

But forever never seems to be around when it ends


[Chorus]

C G Am G
So give me your forever

Please your forever

Not another day less will do

From you
 
 
[Verse] 

People spend so much time every single day

Runnin' round all over town giving their forever way

But no not me I won't let my forever roam

And now i hope i can find my forever a home


[Chorus]

e|-----------------------------------------------------------------|
B|-------0-1--------3----------0h1p0-------------------------------|
G|-------0-0--------0---------2-----2---0--------------------------|
D|-------0-2--------0--------2-------2-----------------------------|
A|-----------------------------------------------------------------|
E|-----------------------------------------------------------------|

(last part of refrain)

e|------------------------------------------|
B|-------0-1--------3-----------0--1--1--0--|
G|-------0-0--------0---0-------0--2--2--0--|
D|-------0-2--------0-----------0--2--3--0--|
A|------------------------------------------|
E|-------------------------3----------------|

C G Am G
So give me your forever

Please your forever

Not another day less will do

From you


[Verse]

Like a handless clock with numbers an infinite of time

No not the forever found only in the mind

Forever always seems to be around when things begin

But forever always seems to be around when things end


[Chorus]

e|-----------------------------------------------------------------|
B|-------0-1--------3----------0h1p0-------------------------------|
G|-------0-0--------0---------2-----2---0--------------------------|
D|-------0-2--------0--------2-------2-----------------------------|
A|-----------------------------------------------------------------|
E|-----------------------------------------------------------------|

(last part of refrain)

e|-----------------------------------------|
B|-------0-1--------3-----------0--1--1--0-|
G|-------0-0--------0---0-------0--2--2--0-|
D|-------0-2--------0-----------0--2--3--0-|
A|-----------------------------------------|
E|-------------------------3---------------|

C G Am G
So give me your forever

Please your forever

Not another day less will do

From you



************************************

| h  Hammer-on
| p  Pull-off

************************************
Suggest correction
What's this?
You can suggest a correction to this tab. Community and Mods will review your correction and vote to approve or reject it.
comments
print report bad tab
guest
You may want to rate the tab now too:
select rating
Please do not post tabs as comments. Select "correction" instead!