Oops, an error
Loading. Please wait.

Gather Round The Stone tab

15,726 views 1 this week
2 commentsread comments
1 2 3 4 5
x 8
add to favorites
×
Save as Personal and add changes to this tab that will be seen only by you. Learn more ›
×
You can save this tab as Personal to edit and correct it or add notes. All changes will be seen only by you. Learn more »
launch autoscroll
font size
0
reset
how to read this tab
guitar tuner
edit
Autoscroll
slow
fast
+/-
esc
set tempo
stop
Difficulty
intermediate
Tabbed by Dan Cummings

Ben Harper - Gather Round The Stone


Intro and Chorus

e--------------------------------------|
B----1-1----1-1----1-1-------1-1-------|
G----2-2----2-2----2-2-------2-2-------|
D----2-2----2-2----2-2-------2-2-------|
A--0------3------0---------------------|
E------------------------0h3-----------|


e----------------------------|
B----1-1------------1--1-----|
G----2-2------------2--2-----|
D----2-2-----0-0h2--2--2-----|
A--0------3------------------|
E----------------------------|


e--------------------------------------|
B----1-1----1-1----1-1-------1-1-------|
G----2-2----2-2----2-2-------2-2-------|
D----2-2----2-2----2-2-------2-2-------|
A--0------3------0---------------------|
E------------------------0h3-----------|


e-----------------------------|
B----1-1-------------1--1-----|
G----2-2-------------2--2-----|
D----2-2--0h2p0------2--2-----|
A--0------------3p0-----------|
E-----------------------------|

VERSES


e--------------------------------------|
B----1-1----1-1----1-1-------1-1-------|
G----2-2----2-2----2-2-------2-2-------|
D----2-2----2-2----2-2-------2-2-------|
A--0------3------0---------------------|
E------------------------0h3-----------|
 Youre too young to know
e----------------------------|
B----1-1------------1--1-----|
G----2-2------------2--2-----|
D----2-2-----0-0h2--2--2-----|
A--0------3------------------|
E----------------------------|
   that you're too young to go


            C              G
Theres no freedom to be found
       F      (C)       Am
Lying face up on the ground


During the solo you can mess around w/ Am pentatonic scale and it sounds good. Too lazy 
try to figure it out right now.

            
            
Suggest correction
Creating personal tab
Creating personal tab
You can edit any tab online and save it as your Personal.

You can edit, replace or remove any tab part or add personal notes – all changes will be seen only by you.

Personal tabs can be accessed anytime from any device, even offline.
Learn more »
comments
print report bad tab
2 comments total.
+2 reply
Iskariot 58 May 09, 2006 06:23 AM

Hi there.

The chords in the second part of the verses should be G-D(with F# in the bass) F-G-A5. And then back to the fingerpicking pattern.

In tab it will look like this

G D F A5
E----3-3-3-3---2-2-2-2---1-1---3-3-----------------
B----3-3-3-3---3-3-3-3---1-1---3-3-----------------
G----0-0-0-0---2-2-2-2---2-2---0-0---2-2-2-2-------
D----0-0-0-0---0-0-0-0---3-3---0-0---2-2-2-2-------
A----2-2-2-2-------------3-3---2-2-0-0-0-0-0-------
E--3-3-3-3-3-2---------1-1-1-3-3-3-----------------

Listen to the song for timing. But I think this should be quite correct. Hope it helps. Great song.

Iskariot

0 reply
Iskariot 58 May 11, 2006 11:39 AM

Hi there.

Just a little correction to the previous comment.

The chords in the second part of the verses should be G-D(with F# in the bass) F-G-A5. And then back to the fingerpicking pattern.

In tab it will look like this

G D F A5
E----3-3-3-3---2-2-2-2---1-1---3-3-----------------
B----3-3-3-3---3-3-3-3---1-1---3-3-----------------
G----0-0-0-0---2-2-2-2---2-2---0-0---2-2-2-2-------
D----0-0-0-0---0-0-0-0---3-3---0-0---2-2-2-2-------
A----2-2-2-2-------------3-3---2-2-0-0-0-0-0-------
E--3-3-3-3-3-2---------1-1-1-3-3-3-----------------

Listen to the song for timing. But I think this should be quite correct. Hope it helps. Great song.

again, iskariot

guest
Wanna post a correction for this tab? Suggest correction