Oops, an error
Loading. Please wait.

Goodbye To You tab

2,020 views 18 this week
1 commentread comment
1 2 3 4 5
x 7
add to favorites
×
Save as Personal and add changes to this tab that will be seen only by you. Learn more ›
×
You can save this tab as Personal to edit and correct it or add notes. All changes will be seen only by you. Learn more »
launch autoscroll
font size
0
reset
how to read this tab
guitar tuner
edit
Autoscroll
slow
fast
+/-
esc
set tempo
stop
[Intro]

    C          G           Am          Am/G        D/F#                     F           C
e|-------------------------------------------------------------------------------------------------|
B|-----1-----------1-----------1-----------1-----------3-----------3-----------1-----------1-------|
G|-------0---0-------0---0-------2---2-------2---2-------2---2-------2---2-------2---2-------0---0-|
D|---2-----2-----0-----0-----2-----2-----2-----2-----0-----0-----0-----0-----3-----3-----2-----2---|
A|-3-----------2-----------0-----------------------------------------------------------3-----------|
E|-------------------------------------3-----------2-----------2-----------1-----------------------|

    C          G           Am          Am/G        D/F#                     F           C
e|-------------------------------------------------------------------------------------------------|
B|-----1-------2-----2-----1-----1-----1-----1---------3-----------3-----------1-----------1-------|
G|-------0---0---0-----------2-----------2---------------2---2-------2---2-------2---2-------0---0-|
D|---2-----2-------0---0-------2---2-------2---2-----0-----0-----0-----0-----3-----3-----2-----2---|
A|-3-----------3-----------0-----------------------------------------------------------3-----------|
E|-------------------------------------3-----------2-----------2-----------1-----------------------|


[Verse]

   C           F           G           Am                    C                     G
e|---------------------------------------------------------------------------------------------------------|
B|-----1-----------1-----------0-----------1-----------1---------1-----------1---------0-------0h1---0-----|
G|-------0---0-------2---2-------0---0-------2---2-----------------0---0-----------------0---0---------0---|
D|---2-----2-----3-----3-----0-----0-----2-----2-----2---------2-----2-----2---------0-----0-------0-----0-|
A|-3-----------------------------------0-----------0-----0-2-3-----------3-----3-2-------------------------|
E|-------------1-----------3-------------------------------------------------------3-----------3-----------|

   F           G           Am                    C                     G
e|---------------------------------------------------------------------------------------------|
B|-----1-----------0-----------1-----------1---------1-----------1---------0-------0h1---0-----|
G|-------2---2-------0---0-------2---2-----------------0---0-----------------0---0---------0---|
D|---3-----3-----0-----0-----2-----2-----2---------2-----2-----2---------0-----0-------0-----0-|
A|-------------------------0-----------0-----0-2-3-----------3-----3-2-------------------------|
E|-1-----------3-------------------------------------------------------3-----------3-----------|


[Chorus]

    C          G           Am          Am/G        D/F#                     F           C
e|-------------------------------------------------------------------------------------------------|
B|-----1-------2-----2-----1-----1-----1-----1---------3-----------3-----------1-----------1-------|
G|-------0---0---0-----------2-----------2---------------2---2-------2---2-------2---2-------0---0-|
D|---2-----2-------0---0-------2---2-------2---2-----0-----0-----0-----0-----3-----3-----2-----2---|
A|-3-----------3-----------0-----------------------------------------------------------3-----------|
E|-------------------------------------3-----------2-----------2-----------1-----------------------|


[Chords]

[Verse 1]
 
        F                 G                 Am           C                          G
        I wake up feeling like i've aged a year 'cause I go to sleep in fear of the dawn

        F            G          Am   C                           G
        Head full of dreams unclear make the days seem twice as long


[Chorus 1]

        C              G             Am                       D/F#           F       C
          I don't know how to say goodbye to you I don't know how to say goodbye to you

        C            G        Am                       D/F#           F       C
          Maybe tomorrow i can start anew I don't know how to say goodbye to you


[Verse 2]

        F         G                Am   C                G
        Passed by where we used to go   Where I now go alone

        F          G         Am        C                        G
        Everything we had to brave I'm left here to face on my own


[Chorus 2]

        C              G             Am                       D/F#           F       C
          I don't know how to say goodbye to you I don't know how to say goodbye to you

        C         G  Am                                 D/F#           F       C
          After all     we've been through I don't know how to say goodbye to you
        

[Acoustic Bridge] (chorus x1)

        C     G     Am     D/F#     F     C

[Verse 3]

        F                G             Am     C                         G
         Shattered and chained to our past   Battered and too proud to ask

        F                 G                  Am       C                                         G
        Walked a razor's edge poisoned by degrees  Create each other's voids fill each other's needs


[Chorus 3]
        
        C              G             Am                       D/F#           F       C
          I don't know how to say goodbye to you I don't know how to say goodbye to you

        C                  G          Am                            D/F#           F       C
          My options are plenty but my choices are few I don't know how to say goodbye to you

[Outro] (chorus x1) 

        C     G     Am     D/F#     F     C


************************************

| h  Hammer-on

************************************

            
            
Suggest correction
Creating personal tab
Creating personal tab
You can edit any tab online and save it as your Personal.

You can edit, replace or remove any tab part or add personal notes – all changes will be seen only by you.

Personal tabs can be accessed anytime from any device, even offline.
Learn more »
comments
print report bad tab
1 comment total.
0 reply
Martinus25 32 May 04, 2016 04:00 AM

It's possible to play Am7 instead of Am, and also to play the entire intro for the acoustic bridge.
Ben doesn't always play it the same way

guest
You may want to rate the tab now too:
select rating
Wanna post a correction for this tab? Suggest correction