Oops, an error
Loading. Please wait.

Morning Yearning Tab

version 2
version 2

Interactive

8,055 views 1 this week
3 commentsread comments
1 2 3 4 5
x 4
add to favorites
launch autoscroll
font size
0
reset
how to read this tab
guitar tuner
Autoscroll
slow
fast
+/-
esc
set tempo
stop
Help us to improve Ultimate-Guitar.com Take our survey!
×
Difficulty
novice
Voici la version parfaite de Morning Yearning. Il s’agit de descendre au ré inférieur la 
de mi (basse).

---0-----0----0----0-|---0-----0----0------|
---------------------|---------------------|
---2----2----2----2--|---0----0----0---0---|
-------5----5----5---|-------5----5-----5/7|
-0----0----0----0----|---------------------|
---------------------|-5----5----5----5----|

---------------------|---------------------|
----6----6----6---(6)|----1p0---0p1--1p0---|
--0----0----0----0---|---2---2p00p2-2---2p0|
---7----7----7----7--|---------------------|
---------------------|---------------------|
-0----0----0----0----|-3----3-----3----3---|

[Pour le bridge, le plus simple est encore d’appliquer le même type d’arpège aux accords 
C – A# - Dm – C – C – A# - Dm – G]

Petits trucs : Le (6) on peut l’oublier, la transition est plus facile. La dernière 
est un peu chiante, le plus dur étant de garder le tempo à la basse.

Si vous avez besoin d'autre chose...
Suggest correction
comments
print report bad tab
3 comments total.
0 reply
giper 10 May 02, 2006 04:08 AM

Parfait...Y'a toujours moyen de faire mieu...
Pour la troisième mesure je conseille plutot cette tab:
----------------------------------------------/
----------------------------------------------/
----------10---------10--------10--------(10)-/
-------7-----------7---------7---------7------/
----10----------10--------10--------10--------/
--0-----------0---------0---------0-----------/
ou
-------------------------------------------------/
--------6-----------6----------6-----------(6)---/
------2----------2----------2-----------2--------/
----5---------5----------5-----------5-----------/
-------------------------------------------------/
--0--------0----------0-----------0--------------/

0 reply
TheNthDimension 111 May 31, 2006 02:05 PM

Peut-être que ce n'est pas parfait...mais c'est même trés bien, merci beaucoup!

0 reply
furyhead 10 Jul 14, 2007 12:19 AM

check the beats for it, and please add the guitar solo... it's the best part of the whole song and a good reason why many people want to learn it
also... i don't think that many other people on this site lit francais comme moi

guest
You may want to rate the tab now too:
select rating
Wanna post a correction for this tab? Suggest correction