Oops, an error
Loading. Please wait.

Morning Yearning Tab

version 3
version 3

Interactive

18,745 views 15 this week
5 commentsread comments
1 2 3 4 5
x 4
add to favorites
launch autoscroll
font size
0
reset
how to read this tab
guitar tuner
Autoscroll
slow
fast
+/-
esc
set tempo
stop
Help us to improve Ultimate-Guitar.com Take our survey!
×
Author
Difficulty
advanced
-------------------------------------------------------------------------------
			     MORNING YEARNING - Ben Harper
-------------------------------------------------------------------------------
Tabbed by: whatsnext4teamz
Email:

Tuning:DADGBe

VERSE:

	Am					G6
e|---------------------------------------------------------------------------|
B|----5-----------5-----------5-----------5-----5-----------5-----------5----|
G|----0-----0-----------0-----------0-----------0-----0-----------0----------|
D|-------------7-----------7-----------7-----------------5-----------5-------|
A|-0-----0-----------0-----------0-------------------------------------------|
D|-------------------------------------------5-----5-----------5-------------|

		Dm(ADD4)				F
e|---------------------------------------------------------------------------|
B|---------------------6-----------6-----------6-----1p0-----------0h1--1----|
G|----0----------0-----------0-----------0-----------0-------0---------------|
D|-------5s7--------7-----------7-----------7-------------------2------------|
A|------------0-----------0-----------0-----------0-------0------------------|
D|-5-------------------------------------------------------------------------|

INTERLUDE:

	C						Bb6
e|---------------------------------------------------------------------------|
B|------6-----------6-----------6-----------6h8-----4-----------4-----------4|
G|------0-----0-----------0-----------0-------------0-----0-----------0------|
D|---------------8-----------8-----------8-------------------6-----------6---|
A|---------------------------------------------------------------------------|
D|---8-----8-----------8-----------8-------------6-----6-----------6---------|

			Dm9
e|---------------------------------------------------------------------------|
B|----------4h6----1-----------1-----------1-----------1p0-------------------|
G|----0------------2-----2-----------2-----------2---------------------------|
D|-------6------------------0-----------0-----------0------------------------|
A|---------------------------------------------------------------------------|
D|-6-------------0----0-----------0-----------0------------------------------|

	G
e|---------------------------------------------------------------------------|
B|----0-----------0-----------0-----------0----------------------------------|
G|----0-----0-----------0-----------0----------------------------------------|
D|-------------0-----------0-----------0-------------------------------------|
A|---------------------------------------------------------------------------|
D|-5-----5-----------5-----------5-------------------------------------------|

Chords:

Am		Gb
a finger's touch upon my lips
Dm(ADD4)
it's a morning yearning
F
morning yearning
Am			Gb
pull the curtains shut, try to keep it dark
Dm(ADD4)
but the sun is burning
F
sun is burning
Suggest correction
comments
print report bad tab
5 comments total. Showing first comments.
0 reply
getmesomekaka 10 Aug 28, 2006 08:13 AM

sounds right not sure bout the interldue ill get back to u on that 1

0 reply
capnpooh 41 Sep 25, 2006 10:06 PM

pretty darn good, though i think ur missing like two notes at the very end of the the verse

0 reply
heyjoey24 103 May 06, 2007 12:43 PM

This is a really good tab! Dont think that the 6's are right in the intro thought but overall its great!

guest
You may want to rate the tab now too:
select rating
Wanna post a correction for this tab? Suggest correction