Oops, an error
Loading. Please wait.

Morning Yearning Tab

version 5
version 5

Interactive

3,710 views 1 this week
1 commentread comment
1 2 3 4 5
1 last vote to show rating
add to favorites
launch autoscroll
font size
0
reset
how to read this tab
guitar tuner
Autoscroll
slow
fast
+/-
esc
set tempo
stop
Help us to improve Ultimate-Guitar.com Take our survey!
×
Author
Difficulty
Tuning
intermediate
D A D G B E
Ben Harper – Morning Yearning

Tabbed by: Chris McGrath AUS

There’s a few tabs out there for the acoustic version of this song but none of them are 
accurate. I worked on this based on a few tabs but I’ve nailed a couple of the tricky 
which make it sounds really good. Great song, great artist, I hope you enjoy this tab!


Tuning: DADGBE

VERSE:


e|-------------------------------------------------------------------------|
B|----5-----------5-----------5-----------5------5-----------5-----------5-|
G|----0-----0-----------0-----------0------------0-----0-----------0-------|
D|-------------7-----------7-----------7------------------5-----------5----|
A|-0-----0-----------0-----------0-----------------------------------------|
D|--------------------------------------------5-----5-----------5----------|


e|-------------------------------------------------------------------------|
B|--------------------6-----------6-----------6------1p0----0p1-----1p0----|
G|----0---------0-----------0-----------0---------------0---0p2---------0--|
D|-------5s7-------7-----------7-----------7-------3------3--------------3-|
A|-------------------------------------------------------------------------|
D|-5---------0-----------0-----------0------------0---------------0--------|


BRIDGE:

  A
e|-------------------------------------------------------------------------|
B|-----8-------------8----------8h10-8---------6----------6----------6h8-6-|
G|-----0-------0-----------0-------------------0-----0----------0----------|
D|----------------10----------10-------------------------8---------8-------|
A|-------------------------------------------------------------------------|
D|-10------10-----------10------------------8------8---------8-------------|

                                         B
e|------0------------------0--------| |------------------------------------|
B|------1---1---1-------------1---1-| |-----8---------8---------8---------8|
G|------------2-------2---------2---| |-----0----0---------0---------0-----|
D|----0-----------------0-----------| |------------10--------10--------10--|
A|----------------------------------| |------------------------------------|
D|-0----------------0---------------| |-10----10---------10-------10-------|

  C
e|-----------------------------|
B|----0h3----------------------|
G|----0------5p4--5--4---------|   x5
D|---------5-----------5-------|
A|-----------------------------|
D|-5---------------------------|


Then go back to the verse again.
Suggest correction
Give kudos to tab author, rate the tab!
1 2 3 4 5
comments
print report bad tab
1 comment total.
0 reply
AKH 10 Feb 24, 2009 05:36 PM

thanks man, though it's still not how it's not quite right. Is seems too simplified. The one with five stars is a little closer, but still far from perfect. I've tried to figure out the mistakes and succeeded in a few places, but still... If somebody would be able to help me out, I'd be really gratefull! Though that person would have no businnes looking here offcourse.. Damn...

guest
You may want to rate the tab now too:
select rating
Wanna post a correction for this tab? Suggest correction