Oops, an error
Loading. Please wait.

Number 3 Tab

version 4
version 4

Whole song

Interactive

10,240 views 18 this week
1 commentread comment
1 2 3 4 5
x 10
add to favorites
launch autoscroll
font size
0
reset
how to read this tab
guitar tuner
×
Best way to learn
"Number 3"
Autoscroll
slow
fast
+/-
esc
set tempo
stop
Author
Difficulty
Tuning
  follow
novice
E A D G B E
Song: #3
Artist: Ben Harper
Standard Tuning
Tabbed by Bhawkins

Not based on any recording in particular, just the general song.

Video of this tab being played:
http://www.youtube.com/watch?v=gyIp2ysqQpw


Play Twice:
    F7                   Am7                Dsus2
E|-----------0-------------------0------------------0----------0---------------------------|
B|-----1------------------------------------0h3--------0h3--------3--------0h3-----0-------|
G|--------2---------2p0-------0--------0h2-------2----------2--------2----------2----------|
D|--3-----------3--------0h2--------2-------0----------0----------0-----0------------------|
A|-----------------------------------------------------------------------------------------|
E|-----------------------------------------------------------------------------------------|



Play Twice:
    F7                  Am                      G/B   C                         G
E|-----------0-------------------0-----------0--------0----------------0-----------------0-|
B|-----1----------------------------------------3-----1--------1h3--------------3----------|
G|--------2--------0h2-----2--------------2-----------0-------------0--------0--------0----|
D|--3-----------3-------------2--------2-----------0-----2----------------2--------0-------|
A|----------------------0-----------0-----0-----2-----3-----3----------3--------2----------|
E|-----------------------------------------------------------------------------------------|

                  Dsus2add9         G
E|-------------------------------0----------------------|
B|--3p1--------------------3--------3-------------------|
G|-------2-----------2--------2-------------------------|
D|-------------0--------0--------------0----0-----------|
A|--0-------0-------------------------------------------|
E|----------------2-----------------3----3--------------|


Play Twice:
    F7                   Am7                Dsus2
E|-----------0-------------------0------------------0----------0---------------------------|
B|-----1------------------------------------0h3--------0h3--------3--------0h3-----0-------|
G|--------2---------2p0-------0--------0h2-------2----------2--------2----------2----------|
D|--3-----------3--------0h2--------2-------0----------0----------0-----0------------------|
A|-----------------------------------------------------------------------------------------|
E|-----------------------------------------------------------------------------------------|


Play Twice:
    F7                  Am                      G/B   C                         G
E|-----------0-------------------0-----------0--------0----------------0-----------------0-|
B|-----1----------------------------------------3-----1--------1h3--------------3----------|
G|--------2--------0h2-----2--------------2-----------0-------------0--------0--------0----|
D|--3-----------3-------------2--------2-----------0-----2----------------2--------0-------|
A|----------------------0-----------0-----0-----2-----3-----3----------3--------2----------|
E|-----------------------------------------------------------------------------------------|

                  Dsus2add9         G
E|-------------------------------0----------------------|
B|--3p1--------------------3--------3-------------------|
G|-------2-----------2--------2-------------------------|
D|-------------0--------0--------------0----0-----------|
A|--0-------0-------------------------------------------|
E|----------------2-----------------3----3--------------|

Play Twice:
    F7                   Am7                Dsus2
E|-----------0-------------------0------------------0----------0---------------------------|
B|-----1------------------------------------0h3--------0h3--------3--------0h3-----0-------|
G|--------2---------2p0-------0--------0h2-------2----------2--------2----------2----------|
D|--3-----------3--------0h2--------2-------0----------0----------0-----0------------------|
A|-----------------------------------------------------------------------------------------|
E|-----------------------------------------------------------------------------------------|


Outro:
     F7
E|------------0-----------0-----------0-------------3----|
B|------1-----------1-----------1-----------1-------1----|
G|---------2-----------2-----------2-----------2----2----|
D|---3-----------3-----------3-----------3----------3----|
A|-------------------------------------------------------|
E|-------------------------------------------------------|


[Optional Picking Variation on C Chord]:
    C
E|--0--------3p1p0----------|
B|--1---------------1-------|
G|--0-----------------------|
D|-----2---------------2----|
A|--3-----3---------3-------|
E|--------------------------|
Suggest correction
comments
print report bad tab
1 comment total.
0 reply
bravohotel10 10 Jul 08, 2013 03:31 AM

At the end of the 'G' section in the 'chorus' section of the piece there should be a high 'E' before proceeding to the 0 and 3p1 combination. Great tab otherwise!

guest
You may want to rate the tab now too:
select rating
Wanna post a correction for this tab? Suggest correction