Oops, an error
Loading. Please wait.

Skin Thin Chords

9,106 views 1 this week
no commentswrite comment
1 2 3 4 5
2 more votes to show rating
add to favorites
launch autoscroll
font size
0
reset
transpose
0
reset
simplify chords
display chords
guitar tuner
Autoscroll
slow
fast
+/-
esc
set tempo
stop
Help us to improve Ultimate-Guitar.com Take our survey!
×
Author
Skin Thin
Ben Harper & Relentless 7
Standard tuning EADGBE 

[Intro + verses]
E|--------------------------------|-------------|
B|--------------------------------|-------------|
G|--------0h2-2-4-2-2h4-----------|-----0h2-2-4-|
D|-0--0-0---------------4p2-2-0-0-|-0-0---------|
A|--------------------------------|-------------|
E|--------------------------------|-------------|

[Verse 1]
Now that you've grown up
You can finally learn to be a child
We made it to the end of the world
But we'll never make it out a lie

[Chorus]
Bm     D
Skin thin
    F#               Bm
I breathe out, you breathe in
        G   D           A
But the day   seems so long
Bm     D
Skin thin
  F#     Bm
Blood  again
     G           D      A
It's all  I can do  to hold on
             Em F#-G   D
We're just skin      thin

[Verse 2]
Always knew if we didn't have each other
We'd have nothing at all
But you were always brave enough
To live like you can never fall

[Chorus]
Bm     D
Skin thin
    F#               Bm
I breathe out, you breathe in
        G   D           A
But the day   seems so long
Bm     D
Skin thin
  F#     Bm
Blood  again
     G           D      A
It's all  I can do  to hold on

[Solo]

[Verse 3]
Now that we've grown up
You can finally learn to be a child
Good friends behind me
But ghosts up ahead for miles and miles

[Chorus]
Bm     D
Skin thin
    F#               Bm
I breathe out, you breathe in
     G       D          A
The days they seem so long
Bm     D
Skin thin
  F#     Bm
Blood  again
     G           D      A
It's all  I can do  to hold on
             Em F#-G   D
Life's just skin     thin 

[Outro]
E|--------------------------------|-------------|
B|--------------------------------|-------------|
G|--------0h2-2-4-2-2h4-----------|-----0h2-2-4-|
D|-0--0-0---------------4p2-2-0-0-|-0-0---------| x3
A|--------------------------------|-------------|
E|--------------------------------|-------------|


********************************************

| h  Hammer-on
| p  Pull-off

********************************************

--------------------------------------------
Tabbed by Sexytom
Comments - corrections: civetom@hotmail.com
Suggest correction
Give kudos to tab author, rate the tab!
1 2 3 4 5
comments
print report bad tab
guest
You may want to rate the tab now too:
select rating
Wanna post a correction for this tab? Suggest correction