Oops, an error
Loading. Please wait.

Two Hands Of A Prayer Tab

version 1
version 1

Whole song

Interactive

7,139 views 1 this week
1 commentread comment
1 2 3 4 5
accurate
x 7
add to favorites
launch autoscroll
font size
0
reset
how to read this tab
guitar tuner
Autoscroll
slow
fast
+/-
esc
set tempo
stop
Help us to improve Ultimate-Guitar.com Take our survey!
×
Artist: Ben Harper

Song: Two Hands of a Prayer

Album: Burn to Shine

Tabbed by: bill mccorey (JuliusMagee@CS.com)

Intro:
------

   Em           D
e|----0-0-0-0-0-0---2-2-3-2-|-|-|-----------------------------0-0-0-0-|
B|----0-0-0-0-1-0---3-3-3-3-|-|-|-----------1-1-3-1-----------0-0-1-0-|
G|----0-0-0-0-0-0---2-2-2-2-|%|%|-----0h2---2-2-2-2-----------0-0-0-0-|
D|----2-2-2-2-2-2-0---------|-|-|-0-0-------2-2-2-2-----0h2---2-2-2-2-|
A|-2------------------------|-|-|---------0---------0-0-------2-2-2-2-|
E|--0-----------------------|-|-|---------------------------0-------0-|


Couplet: (Same as Intro)
--------

  Em               D                Em                D
First time that I saw her she had white doves in her eyes


 Em                     D         Am         Em
She spoke to me but I could not reply, not reply

 Em       D                    Em        D
She was a stranger I had not known for years


      Em              D              Am              Em
She brought to me so many smiles & tears, smiles & tears

Riff A: (before chorus)
--------

     Em            D     C        Em   Em     D   C
e|-----------------0-0---0-|-|-|--------0-----2---0------|
B|----------0-1-0--3-3---1-|-|-|--------0-----3---1------|
G|----------0-0-0--0-0---0-|%|%|--------0-----2---0------|
D|----------2-2-2--4-4---2-|-|-|-2-2-2--2-----0---2------|
A|--2-2-2---2-2-2--5-5---3-|-|-|-2-2-2--2---------3------|
E|--0-0-0------------------|-|-|-0-0-0--0----------------|
                                             The Two...

 D   C   G           D
The two Hands of a Prayer

Dsus4  D         Dsus2  D Dus2 C  G    D
Toge--ther like the two ha--ands of a prayer

Dsus4  D         Dsus2  D Dsus2C  G    D
Toge--ther like the two ha--ands of a prayer

Dsus4  D         Dsus2  D Dsus2C  G    D     Dsus4  D Dsus2 D Dsus4 D Dsus 2 D
Toge--ther like the two ha--ands of a prayer


e|----------------------------------------|
B|----------------------------------------|
G|-2h4p2-0--0h2p0-------------------------|
D|-----------------------5h7-5(h7p5)------|
A|----------------3--5h7------------7-----|
E|------------------------------------0---|


Verse:
------
Tired maid slowly drifts into the past, into the past
And finds a home where echos rest, echos rest
She softly kissed my mind, and whispered what we will do with time, do with time

Chorus:
-------
The two hands of a prayer
Together like the two hands of a prayer
Together like the two hands of a prayer
Together like the two hands of a prayer

Bridge: (play Riff A then Chorus)
-------

Verse:
------
Another man I choose to be, choose to be
Or just the man I used to be, used to be
Another man I want to be, want to be
And this question, keeps haunting me, haunting me


Chorus:
-------
The two hands of a prayer
Together like the two hands of a prayer
Together like the two hands of a prayer
Together like the two hands of a prayer

Outro:(Play Riff A)
------
comments
print report bad tab
1 comment total.
0 reply
duplock80 14 wrote on June 12 2007, 10:54 am

great tab. Found an easier way to play the fill after the chorus on just 3rd and 4th string

I want to post or [tab]
guest
You may want to rate the tab now too:
select rating
Please do not post tabs as comments. Select "correction" instead!