Oops, an error
Loading. Please wait.

Bones Tab

version 1
version 1

Whole song

29,247 views 57 this week
no commentswrite comment
1 2 3 4 5
x 8
add to favorites
launch autoscroll
font size
0
reset
how to read this tab
guitar tuner
Autoscroll
slow
fast
+/-
esc
set tempo
stop
Help us to improve Ultimate-Guitar.com Take our survey!
×
Author
Difficulty
Tuning
Capo
intermediate
C G C G C E
5th fret
Bones – Ben Howard

First ever tab and I know it’s not perfect but it sounds more or less right so I’m open 
to suggestions for changes :)

Tuning: CGCGGC
Capo 5th fret, leave the 6E string uncapped

 all fret numbers are relative to the capo (obviously with the exception to the low E string)
 First time he plays this:
E|-------------------------------------------------------------------------|
C|-------------------------------------------------------------------------|
G|-------------------------------------------------------------------------|
C|-----------2p0-----0--0--------------------------------------------------|
G|----2h4-4--0---4p0-0--0--------------------------------------------------|
C|----0---0--0---0---9--7--------------------------------------------------|
*Strum the last two chords to make it sound like the album version

Then he uses this variation throughout the verse:
E|-------------------------------------------------------------------------|
C|-------------------------------------------------------------------------|
G|-------------------------------------------------------------------------|
C|-----------2h4p2p0-----------------0--0----------------------------------|
G|----2h4-4--0-------0h4-0-2-2h4p2p0-0--0----------------------------------|
C|----0---0--0-----------0-0-0-------9--7----------------------------------|

Then I’m not too sure about the chorus but it goes something like this:
E|-------------------------------------------------------------------------|
C|-------------------------------------------------------------------------|
G|----0~~~-------7---4-----------------------------------------------------|
C|----0~~~-------0---0-----------------------------------------------------|
G|----0~~~-------7---4-----------------------------------------------------|
C|----5~~~------12---9-----------------------------------------------------| x3

Let the first chord ring (the first time of the chorus), then strum the other two chords 
and that’s pretty much the song, it just repeats throughout the song.

[Song Order]
[Verse 1]
[Chorus]
[Verse 2]
[Chorus] x2
[Outro]

E-mail me for suggestions: shaunweather@gmail.com
Enjoy :)
Suggest correction
comments
print report bad tab
guest
You may want to rate the tab now too:
select rating
Wanna post a correction for this tab? Suggest correction