Oops, an error
Loading. Please wait.

End Of The Affair Tab

version 1
version 1

Intro

Whole song

15,388 views 93 this week
2 commentsread comments
1 2 3 4 5
accurate
x 5
add to favorites
launch autoscroll
font size
0
reset
how to read this tab
guitar tuner
Autoscroll
slow
fast
+/-
esc
set tempo
stop
Help us to improve Ultimate-Guitar.com Take our survey!
×
Author
Difficulty
Tuning
Capo
ryanjack1 107
intermediate
C G C F A D
7th fret
-------------------------------------------------------------------------------
                     END OF THE AFFAIR - Ben Howard
-------------------------------------------------------------------------------

I saw this video and tabbed as much as I possibly could:
https://www.youtube.com/watch?v=kCY3Yt8TYvo

Tuning: C G A# G F C 
Capo: 7th fret (6th String left open) 
All notes are relation to the nut


C |-----------------------------------------------------------------------------|
F |-----------------------------------------------------------------------------|
G |-----------------------------------------------------------------------------|
A#|-----7---12---11---9p7----7---12---11---9p7----7-----7---7---7---7---7 ------| 
G |----------------------------------------------------7---7---7---7---7--------|
C |--10---10---10----------9---9---9------------2---2-2---5---4---7---5---------|

C |----------12-7--11p7--------12-7---------------------------------------------|
F |----------12-7--11p7--------12-7---------------------------------------------|
G |-----------------------------------------------------------------------------|
A#|-----7------------------7-----------7-----7---7---7---7---7 -----------------| 
G |-----------------------------------------7---7---7---7---7-------------------|
C |--10---10-------------9---9-------2---2-2---5---4---7---5--------------------|

C |---------------------------------------------------------------7-------------|
F |---------------------------------------------------------------7-------------|
G |---------------------------------------------------------------7-------------|
A#|---------------------------------------------------------------7-------------|
G |----9---9---9---9---9---9---9---9---10--12--14--9--10--12--17--7-------------|
C |--0---0---0---0---0---0---0---0---0----0---0---0--0---0---0----0-------------|

C |---------------------------------------------------7--------------------------|
F |----9---9---9---9p7--------------------------------7----9---9---9---9p7-------|
G |----7---7---7---7----------------------------------7----7---7---7---7---------|
A#|---------------------------------------------------7--------------------------| Repeat everything
G |--------------------9---10--12--14--9--10--12--17--7--------------------------|
C |--10--10--10--10---0---0---0---0---0--0---0---0----0--10--10--10--10----------|

C |-----------------------------------7------------------------------------------------------------------|
F |---12--14--16--14--12--14--16--14--7----9---9---9---9p7---12--14--16--14--12--14b---9---9---9---9p7---|
F |-----------------------------------7----7---7---7---7-------------------------------7---7---7---7-----|
A#|-----------------------------------7------------------------------------------------------------------|
G |-----------------------------------7------------------------------------------------------------------|
C |--0---0---0---0---0---0---0--------0--10--10--10--10-----0---0---0---0---0---0----10--10--10--10------|

I couldn't tell quite what was happening with the harmonics but this is everything I could work out

************************************
| p   pull-off
| b   Bend
************************************
Suggest correction
What's this?
You can suggest a correction to this tab. Community and Mods will review your correction and vote to approve or reject it.
comments
print report bad tab
2 comments total.
0 reply
MacAttic 88 wrote on July 18 2014, 11:31 am

I think the harmonics are just the 12 and the 5 fret from the capo with his own picking pattern :)

0 reply
dmart 15 wrote on August 24 2014, 12:26 pm

So, is it possible to replicate?

guest
You may want to rate the tab now too:
select rating
Please do not post tabs as comments. Select "correction" instead!