Oops, an error
Loading. Please wait.

Evergreen tab

version 2
version 2

Whole song

  • Tuning: CFA#FFC couldn't find a good tab on here s... Show more

Interactive

127 views 1 this week
no commentswrite comment
1 2 3 4 5
2 more votes to show rating
add to favorites
×
Save as Personal and add changes to this tab that will be seen only by you. Learn more ›
×
You can save this tab as Personal to edit and correct it or add notes. All changes will be seen only by you. Learn more »
launch autoscroll
font size
0
reset
how to read this tab
guitar tuner
edit
Autoscroll
slow
fast
+/-
esc
set tempo
stop
About this tab version
Tuning: CFA#FFC couldn't find a good tab on here so decided to make one myself, hope you enjoy and make any corrections where they lie, also its my first tab, sorry if its messy :). Was this info helpful? Yes No
[Intro & Verse]
C|----------------------------------------------0--0-------------------------|
F|-----------------------------------(12)-------0--0-------------------------|
F|-----10\9/12---10\9--7------------------------0--0-------------------------|
A#|---------------------------------------------0--0-------------------------|
F|-----10\9/12---10\9--7--9-|-5h7-9-------9--7--7--7-------------------------|
C|--0----------------------------------------9--9--9-------------------------|  x2 for intro

verse is the same as intro 

[Verse]
C|----------------------------------------------0--0-------------------------|
F|-----------------------------------(12)-------0--0-------------------------|
F|-----10\9/12---10\9--7------------------------0--0-------------------------|
A#|---------------------------------------------0--0-------------------------|
F|-----10\9/12---10\9--7--9-|-5h7-9-------9--7--7--7-------------------------|
C|--0----------------------------------------9--9--9-------------------------|  x4

[Chorus]
strumming pattern is very easy to figure out, just listen to the song.
C|-----0--0--|-------0---|------0----------------------------------------------|
F|-----2--2--|-------0---|------0----------------------------------------------|
F|-----0--0--|-------0---|------0----------------------------------------------|
A#|----0--0--|-------0---|------0----------------------------------------------|
F|--2--2--2--|---9---9---|---7--7----------------------------------------------|
C|--3--3--3--|---10--10--|---9--9----------------------------------------------|  x4 

[Verse]
C|----------------------------------------------0--0-------------------------|
F|-----------------------------------(12)-------0--0-------------------------|
F|-----10\9/12---10\9--7------------------------0--0-------------------------|
A#|---------------------------------------------0--0-------------------------|
F|-----10\9/12---10\9--7--9-|-5h7-9-------9--7--7--7-------------------------|
C|--0----------------------------------------9--9--9-------------------------|  x4

[Pre Chorus]
C|---------------|-------------------------------------------------------------|
F|---------------|-------------------------------------------------------------|
F|------10\9/12--|--14\12--10--7/9---------------------------------------------|
A#|--------------|-------------------------------------------------------------|
F|------10\9/12--|--14\12--10--7/9----5h7--9-----------------------------------|
C|---0-----------|-------------------------------------------------------------| x1

C|----------------------------------------------0--0--0--0--0--0-----------------|
F|-----------------------------------(12)-------0--0--0--0--0--0-----------------|
F|-----10\9/12---10\9--7------------------------0--0--0--0--0--0-----------------|
A#|---------------------------------------------0--0--0--0--0--0-----------------|
F|-----10\9/12---10\9--7--9-|-5h7-9-------9--7--7--7--7--7--7--7-----------------|
C|--0----------------------------------------9--9--9--9--9--9--9-----------------| x1

[Chorus] 
C|-----0--0---|-------0---------0----------------------------------------------|
F|-----2--2---|-------0---------0----------------------------------------------|
F|-----0--0---|-------0---------0----------------------------------------------|
A#|----0--0---|-------0---------0----------------------------------------------|
F|--2--2--2---|---9---9------7--7----------------------------------------------|
C|--3--3--3---|---10--10-----9--9----------------------------------------------|  x4

[Outro] 
C|---------------------------------------------------------------------------|
F|---------------------------------------------------------------------------|
F|---------------------------------------------------------------------------|
A#|---0-----0----0-----------------------------------------------------------|
F|----9-----9----2-----------------------------------------------------------|
C|----10----7----3-----------------------------------------------------------|



************************************

| (n)  Ghost note
| /    Slide up
| \    Slide down
| h    Hammer-on
 

************************************
Suggest correction
Creating personal tab
Creating personal tab
You can edit any tab online and save it as your Personal.

You can edit, replace or remove any tab part or add personal notes – all changes will be seen only by you.

Personal tabs can be accessed anytime from any device, even offline.
Learn more »
Give kudos to tab author, rate the tab!
1 2 3 4 5
comments
print report bad tab
guest
You may want to rate the tab now too:
select rating
Wanna post a correction for this tab? Suggest correction