Oops, an error
Loading. Please wait.

Everything Tab

version 2
version 2
12,490 views 30 this week
1 commentread comment
1 2 3 4 5
accurate
x 7
add to favorites
launch autoscroll
font size
0
reset
how to read this tab
guitar tuner
Autoscroll
slow
fast
+/-
esc
set tempo
stop
Help us to improve Ultimate-Guitar.com Take our survey!
×
Contributor
Capo
wikaman1 3,262
3rd fret
-------------------------------------------------------------------------------
                             Everything  - Ben Howard 
-------------------------------------------------------------------------------
Tabbed by: Neil Wicker
Email: wicker101@hotmail.co.uk

Tuning: Standard 

Capo 3

I play Ben Howard songs in standard tuning and this is one of my favourites so here's the tab.
you can listen to how it sounds here - 
http://soundcloud.com/wicker101/everything

If you like this one, I've also done black flies, diamonds and old pine in 
standard tuning, they're on my profile. 

Intro and Verse:

e|--------------------------------------------------------|
B|--------------------------------------------------------|
G|--------0-----5--------0--------0-----5--------0--------|
D|-----7--------------7--------7--------------7-----------|
A|--8--------8-----8--------8--------8-----8-----------0--|
E|--------------------------------------------------------|


e|-------------------------|------------------|
B|-------------------------|-------1-------1--|
G|-------------------------|------0-------0---|
D|--0h2p0--0-----0h2p0--0--|-----0-------0----|
A|------------0------------|--3-------2-------|
E|-------------------------|------------------|


And the birds still sing outside
These windows where we sat together
Like nothing ever happened here
The white house on the hill,
Black clouds of weather

And the church spire over the river
She still sits there warm in the evening glow
But you don’t care about these scenes I treasure
About these west winds, I know, I know

Pre Chorus:

e|--------------3--------3--|--------------3--------3--|--------------3--------3--|
B|--------------------------|--------------------------|--------------------------|
G|--------0--------0--------|--------0--------0--------|--------0--------0--------|
D|-----0--------------0-----|-----0--------------0-----|-----0--------------0-----|
A|--3--------3--------------|--2--------2--------------|--------------------------|
E|--------------------------|--------------------------|--1--------1--------------|

e|--------------3--------3--|
B|--------------------------|
G|--------0--------0--------| x2
D|-----0--------------0-----|
A|--------------------------|
E|--1--------1--------------|

Seems everything around here
Stays like stone
Seems it's about time darling
About time we let this all go

Chorus:

e|---10+--7+--5+---------------------------------------------------|
B|---10+--7+--5+----2h4p2p0----------------------------------------|
G|---10+--7+--5+----------------5-----5-----5---------5------------|
D|------------------------------5-----5-----5---------5------------|
A|---------------------------3-----3-----3-----3s5s3-----3h5p3--0--|
E|-----------------------------------------------------------------|

Cause everything will start again anew
Cause everything just goes away my friend
And every king knows it to be true
And every kingdom must one day come to an


e|---------------------------------|
B|---------------------------------|
G|--4--2---------------------------|
D|--2—-0---------------------------| x8
A|--------3h5--3h5p3p0--(0)--(0)---|
E|---------------------------------|

e|--------------------------------------------|
B|--------------------------------------------|
G|--------0--------0--------------0-------0---|
D|-----0--------0--------0-----0-------0------|
A|--2--------2--------2-----2-------2---------|
E|--------------------------------------------|


End…

Verse: (gets slightly different this time)

e|--------------------------------------------------------|
B|--------------------------------------------------------|
G|--------0-----5--------0--------0-----5--------0--------|
D|-----7--------------7--------7--------------7-----7-----|
A|--8--------8-----8--------8--------8-----8-----------0--|
E|--------------------------------------------------------|

e|-------------------------|
B|-------------------------|
G|-------------------------|
D|--0h2p0--0-----0h2p0--0--|
A|------------0------------|
E|-------------------------|

e|--------------------------|--------------------------|
B|--------------1--------1--|--------------1--------1--|
G|--------0--------0--------|--------0--------0--------|
D|-----0--------------0-----|-----0--------------0-----|
A|--3--------3--------------|--2--------2--------------|
E|--------------------------|--------------------------|

e|----------------------------------------|
B|----------------------------------------|
G|----5-----5------5---------5------------|
D|----5-----5------5---------5------------|
A|--3-----3-----3-----3s5s3-----3h5p3--0--|
E|----------------------------------------|


And the sun, she may be long gone
Lost too these memories we've found
But she'll be here, when it's all done
When our bodies are lain beneath the ground

Pre Chorus: 

e|--------------------------|--------------------------|
B|--------------1--------1--|--------------1--------1--|
G|--------0--------0--------|--------0--------0--------|
D|-----0--------------0-----|-----0--------------0-----|
A|--3--------3--------------|--2--------2--------------|
E|--------------------------|--------------------------|

e|--------------------------|
B|--------------1--------1--|
G|--------0--------0--------| 
D|-----0--------------0-----|
A|--------------------------|
E|--1--------1--------------|

(first time)

e|----------------------------------------|
B|----------------------------------------|
G|----5-----5------5---------5------------|
D|----5-----5------5---------5------------|
A|--3-----3-----3-----3s5s3-----3h5p3--0--|
E|----------------------------------------|

(second time) 

e|--------------------------|
B|--------------1--------1--|
G|--------0--------0--------| 
D|-----0--------------0-----| x4
A|--------------------------|
E|--1--------1--------------|

She knows everything that goes around
Comes, comes around here
She knows everything that stays here somehow
Gets me down again

Chorus

************************************

| /   slide up
| \   slide down
| h   hammer-on
| p   pull-off
| ~   vibrato
| +   harmonic
| x   Mute note
| b   Bend
| pb  Pre-bend
| br  Bend release
| pbr Pre-bend release
| brb Bend release bend

************************************
comments
print report bad tab
1 comment total.
0 reply
andre.milagre 11 wrote on April 11 2016, 05:51 pm

I really like the tab, but i think there is a correction to be made in this part of the song, hope you agree!

e|---10+--7+--5+---------------------------------------------------|
B|---10+--7+--5+----3h5p3s1----------------------------------------|
G|---10+--7+--5+----------------5-----5-----5---------5------------|
D|------------------------------5-----5-----5---------5------------|
A|---------------------------3-----3-----3-----3s5s3-----3h5p3--0--|
E|-----------------------------------------------------------------|

Cause everything will start again anew
Cause everything just goes away my friend
And every king knows it to be true

I want to post or [tab]
guest
You may want to rate the tab now too:
select rating
Please do not post tabs as comments. Select "correction" instead!