Oops, an error
Loading. Please wait.

Everything Tab

version 3
version 3
63,229 views 147 this week
6 commentsread comments
1 2 3 4 5
excellent!
x 32
add to favorites
launch autoscroll
font size
0
reset
how to read this tab
guitar tuner
Autoscroll
slow
fast
+/-
esc
set tempo
stop
Help us to improve Ultimate-Guitar.com Take our survey!
×
Author
Difficulty
Capo
intermediate
3rd fret
-------------------------------------------------------------------------------
                             EVERYTHING – BEN HOWARD
-------------------------------------------------------------------------------
Tabbed by: PUZZLEDSOAP
Email:

Tuning: CGCGGC and capo on 3 covering top 5 strings
Because of the strange capo positioning all notes are NOT relative to the capo 
positioning, but to nut, i.e. 0th fret. Hope that makes sense and enjoy!


[Verse]

e|----------------3-------------------------3-----------------------------|
B|-------------------3-----3-------------------3--------------------------|
G|-----------3----------3--------------3----------3-----------------------|
D|--------12-----------------------12-------------------------------------|
A|-----13-------13--------------13-------13-------------------------------|
E|------------------------------------------------------------------------|

e|------------------------------------------------------------------------|
B|------------------------------------------------------------------------|
G|------------------------------------------------------------------------|
D|---------5h7p5p3h5p3-------5h7p5p3h5p3----------------------------------|
A|----3h5-----------------3-----------------------------------------------|
E|------------------------------------------------------------------------|

e|----------------+10--------------------7p3------------------------------|
B|---------+10---------+10-------10---------------------------------------|
G|---------+10-------------------10---------------------------------------|
D|---------+10-------------------10---------------------------------------|
A|----/8----------------------7-------------------------------------------|
E|------------------------------------------------------------------------|


[Pre-Chorus Bit]

e|-----------------10---------------------------10------------------------|
B|---------------------10-----10--------------------10-----10-------------|
G|-----------3-------------3---------------3------------3-----------------|
D|--------3-----------------------------3---------------------------------|
A|-----8--------8--------------------7--------7---------------------------|
E|------------------------------------------------------------------------|

e|-----------------10----------------------------10-----------------------|
B|---------------------10-----10---------------------10-----10------------|
G|-----------3-------------3---------------3-------------3----------------|
D|--------3-----------------------------3-----------------------------X2--|
A|------------------------------------------------------------------------|
E|-----8--------8--------------------8--------8---------------------------|


[Chorus]

e|------------------------------------5h7p5p3-----------------------------|
B|------------------------------------------------------------------------|
G|----------+15---+12---+10-----------------------------------------------|
D|----------+15---+12---+10-----------------------------------------------|
A|----------+15---+12-----------------------------------------------------|
E|----0----------------------------0--------------------------------------|

e|------------------------------------------------------------------------|
B|------------------------------------------------------------------------|
G|--------3--3----------3--------3-----------3----------------------------|
D|--------3--3----------5/7------5-----------3h5--------------------------|
A|--------3--3----------3--------3-----------3-----------------------X4---|
E|-----3---------3------------3----------3--------------------------------|


e|------------------------------------------------------------------------|
B|------------------------------------------------------------------------|
G|-------7---5---3-h-5-------3h5------------------------------------------|
D|-------7---5---3-h-5-------3h5---------X2-------------------------------|
A|------------------------------------------------------------------------|
E|----0------------------0---------0--------------------------------------|

e|-----------------------------------------------|------------------------|
B|-----------------------------------------------|------------------------|
G|-------3---3---3-----------3-------------------|------------------------|
D|-------7---5---3-h-5-------3h5---------X2------|---------X2-------------|
A|-------3---3---3-----------3-------------------|------------------------|
E|----3------------------3---------3-------------|------------------------|



e|-----------------3------------------------------------------------------|
B|--------------------------3---------------------------------------------|
G|-----------3--------3---------------------------------------------------|
D|--------5--------------5--------X2--------------------------------------|
A|------------------------------------------------------------------------|
E|----2---------2---------------------------------------------------------|

************************************

| h  Hammer-on
| p  Pull-off
| /  Slide up 

************************************
Suggest correction
What's this?
You can suggest a correction to this tab. Community and Mods will review your correction and vote to approve or reject it.
comments
print report bad tab
6 comments total. Showing first comments.
+2 reply
victorhj 23 wrote on July 31 2012, 05:56 am

Very nice tab, but the harmonics should be
----------------------------
---15+----10+---8+----------
---15+----10+---8+----------
---15+----10+---8+----------
----------------------------
-0--------------------------

Instead :)

+2 reply
marcskate 18 wrote on January 22 2013, 10:58 pm

In the begining it's :
e|-----------------3--------------------------3---------------------------|
B|------------------------------------------------------------------------|
G|-----------3--------------3-----------3-----------------3---------------|
D|--------12------------12-----------12---------------12------------------|
A|-----13-------13---13-----------13-------13-----13----------------------|
E|------------------------------------------------------------------------|

but great job for the whole tab ;)

0 reply
marcskate 18 wrote on January 22 2013, 11:00 pm

e|-----------------3-------------------------------3---------------------------|
B|------------------------------------------------------------------------|
G|-----------3--------------3-----------3-------------------------3---------------|
D|--------12------------12-----------12----------------------12------------------|
A|-----13-------13---13-----------13---------13---------13----------------------|
E|------------------------------------------------------------------------|

Sry it didn't work the first time :P

guest
You may want to rate the tab now too:
select rating
Please do not post tabs as comments. Select "correction" instead!