Oops, an error
Loading. Please wait.

Everything tab

version 4
version 4
2,195 views 6 this week
1 commentread comment
1 2 3 4 5
2 more votes to show rating
add to favorites
×
Save as Personal and add changes to this tab that will be seen only by you. Learn more ›
×
You can save this tab as Personal to edit and correct it or add notes. All changes will be seen only by you. Learn more »
launch autoscroll
font size
0
reset
how to read this tab
guitar tuner
edit
Autoscroll
slow
fast
+/-
esc
set tempo
stop
-------------------------------------------------------------------------------
                             Everything / Ben Howard
-------------------------------------------------------------------------------
Tabbed by: Jaws
E-mail: jawsbrand@gmail.com

Ok, so this is a hard song to tab and play.
This is a correction to the “I am McLovin Tab” which I used as base.
Watch Ben Howard do it live on YouTube, which makes is easier to understand how he does it!

Open C tuning: same as Black Flies of Ben Howard
CFCGGC

Capo 3 fret, leave the top E string open. So capo on 5 lowest strings
All is based on capo

Intro/verse:                                                            
C|-----------------|------------------|-----------------|--------------|----------------|
G|----------5------|----------5-------|-----------------|--------------|-----7-------7--|
G|-----0------0---0|-----0------0---0-|-----------------|--------------|-----7-------7--|
C|---5---5------5--|---5---5------5---|------4p2p0-0h5p0|--4p2p0-0h5po-|-----7-------7--|
F|-----------------|------------------|-----------------|--------------|--7-------6-----|
C|-5---------------|-5----------------|--3--------------|-3------------|----------------|

Pre-chorus:
(This plays twice for pre chorus/bridge)
C|-----------7--------|----------7---------|-----------7-----------|
G|--------------------|--------------------|-----------------------|
G|------7------7---7--|-----7-------7---7--|------0-------0---0----|
C|----0---0------0----|---0---0-------0----|----7---7-------7------| --
F|--7-----------------|-6------------------|-----------------------|
C|--------------------|--------------------|--5--------------------|

Chorus:
For this check out his video.
Ben Moves his hand on the top side of his guitar.
He uses his ring finger to play the (3) on the E (now an C) string and his index to play 
the (2) and (4) on the D (now a C) string.

     
C|---------12--10--7----|----2h4p2p0----|----------------------------|
G|---(0)---12--10--7----|---------------|--0----0--0-----(0)------0--|
G|---(0)---12--10--7----|---------------|--0----0--0-----(0)------0--|
C|---(0)----------------|---------------|--0----0--2/4p0--0h2p0---0--|x4
F|----------------------|---------------|----------------------------|
C|--0-------------------|---------------|--0--0----0------0-----0----|
         Eve-ry  king                  who knows  it  to  be true

(Verse)
And the birds still sing outside
These windows where we sat together
Like nothing ever happened here
The white house on the hill,
Black clouds of weather

And the church spire over the river
She still sits there warm in the evening glow
But you don’t care about these scenes I treasure
About these west winds, I know, I know

(Pre-chorus)
Seems everything around here
Stays like stone
Seems it's about time darling
About time we let this all go

(Chorus)
Everything must start again anew
Everything just goes that way my friend
Every king knows it to be true
That every kingdom must one day come to an end

(Verse)
And the sun, she may be long gone
Lost to these memories we found
But she’ll be here when it’s all done
When our bodies are lain beneath the ground

(pre-chorus)
Seems everything that goes around
Comes around here
Seems that everything that stays
Somehow gets me down again

(chorus)
Everything must start again anew
Everything just goes that way my friend
Every king knows it to be true
That every kingdom must one day come to an end
Suggest correction
Creating personal tab
Creating personal tab
You can edit any tab online and save it as your Personal.

You can edit, replace or remove any tab part or add personal notes – all changes will be seen only by you.

Personal tabs can be accessed anytime from any device, even offline.
Learn more »
Give kudos to tab author, rate the tab!
1 2 3 4 5
comments
print report bad tab
1 comment total.
0 reply
Solidforce 178 Dec 22, 2012 01:37 AM

I see I made a mistake so edit:
Intro/verse:
C|-----------------|--------------|----------------|
G|-----------------|--------------|-----7-------7--|
G|-----------------|--------------|-----7-------7--|
C|------4p2p0-0h5p0|--4p2p0-0h5po-|-----7-------7--|
F|--5--------------|-5------------|--7-------6-----|
C|-----------------|--------------|----------------|

guest
You may want to rate the tab now too:
select rating
Wanna post a correction for this tab? Suggest correction