Oops, an error
Loading. Please wait.

Everything Tab

version 5
version 5
9,643 views 18 this week
no commentswrite comment
1 2 3 4 5
please rate
add to favorites
launch autoscroll
font size
0
reset
how to read this tab
guitar tuner
Autoscroll
slow
fast
+/-
esc
set tempo
stop
Help us to improve Ultimate-Guitar.com Take our survey!
×
Difficulty
Tuning
intermediate
C F A# D# G C
Capo at 3rd fret (only the first 5 strings, the low C string without capo). 
Numbers with capo in 3rd fret (of course 0 on C is 0 ;) )

Tuning is CGCGGC 

Legend:
s = slap (or a hard strum if the s is before the number)
h = harmonics
n = hold note
b = bend
^ = hammer on / Pull off
/ = slide

Intro / Verse
c------------0--------------------0---------------------------------|
G-----------------------------------0-------------------------------|
G------0------------0------0----------------------------------------|
C----9------------9------9------------s9^0--------------------------|
G-10-----10----10-----10------10------------------------------------|
C-------------------------------------------------------------------|


c------------------------------------------h7---h7-----------------|
G----------------------------------------h7-------h7---------------|
G--------------------------------------h7--------------------------|
C----2^4^2^0^2b^0----2^4^2^0^2b^0----------------------------------|
G-2n--------------2n----------------5---------4--------------------|
C------------------------------------------------------------------|

Variations
c---------h7-------7------------------------------------------------|
G-------h7---h7------7----------------------------------------------|
G-----h7------------------------------------------------------------|
C---h7--------------------------------------------------------------|
G-5--------------4--------------------------------------------------|
C-------------------------------------------------------------------|

at "Warm, in the evening glow"
c----------h7------------7------7^0-----4^0--s0---------------------|
G--------h7--h7---------7------7-^0-----4^0--s0---------------------|
G------h7------h7-------------7--------------s0---------------------|
C----h7----------h7-------------------------------------------------|
G--5------------------4----s-4------s-4-----------------------------|
C-------------------------------------------------------------------|

"I know, I know"
c---------h7---7-----7----------------------------------------------|
G-------h7----7-----7-----------------------------------------------|
G-----h7------------------------------------------------------------|
C---h7--------------------------------------------------------------|
G-5---------4---s-4-------------------------------------------------|
C-------------------------------------------------------------------|

Pre-Chorus ("seems everything around here")
c----------7---------------7---------------7---------------7--------|
G----------------7---------------7---------------7--------------7---|
G------0---------------0---------------0---------------0------------|
C----0---------0-----0---------0-----0---------0-----0--------0-----| 
G--5-----5---5-----4-----4---4--------------------------------------|
C----------------------------------4-----4---4---- 4-----4--4-------|
repeat

at the end of the Pre-Chorus
c--------7------------7---------------------------------------------|
G-------------7---------7-------------------------------------------|
G----0-----------0-------s0-----------------------------------------|
C---0--------0---0---------s0---------------------------------------|
G-------------------------------------------------------------------|
C-4----4---4----4----4----------------------------------------------|

Chorus (I recommend to watch a video to see the technique of Ben)
c-------------------2^4^2^0-s0--------------------------------------|
G---------------------------s0--------------------------------------|
G----h12--h7--h5------------s0----0---0---------4-------2-s0--------|
C----h12--h7--h5------------------0---0---------4-------2-s0--------|
G-------------------------------------------------------------------|
C-0n-------------s-0-------------3---3---s3---3-----s-3-------------|


c-------------------2^4^2^0-s0--------------------------------------|
G---------------------------s0--------------------------------------|
G----h12--h7--h5------------s0-----0---0--------0n--s0----2^0-s0----|
C----h12--h7--h5-------------------0---0--------2/4-s0----2^0-s0----|
G-------------------------------------------------------------------|
C-0n-------------s-0-------------3----3---s3---3---------3----------|

c--------------------2^4^2^0-s0-------------------------------------|
G----------------------------s0-------------------------------------|
G----h12--h7--h5-------------s0-----0---0-------0n-s0-----2^0-s0----|
C----h12--h7--h5--------------------0---0-------2/4-s0----2^0-s0----|
G-------------------------------------------------------------------|
C-0n-------------s-0-------------3---3----s3--3---------3-----------|

c----------------------2^4h^0---------------------------------------|
G-------------------------------------------------------------------|
G----h12--h7--h5---------------------0---0-------0n--s0----2^0-s0---|
C----h12--h7--h5---------------------0---0-------2/4-s0----2^0-s0---|
G-------------------------------------------------------------------|
C-0n--------------s-0------s--------3---3---s3--3---------3---------|

bridge
c-------------------------------------------------------------------|
G-------------------------------------------------------------------|
G----5-2-0^2-----2^0-s0-----5-2^0-----0n--s0------------------------|
C----4-2-0^2-----2^0-s0-----4-2^0-----2^4-s0------------------------|
G-------------------------------------------------------------------|
C-0n---------s-0n--------0n-------s-0n------------------------------|

c-------------------------------------------------------------------|
G-------------------------------------------------------------------|
G----------------0n------------------------0n-----------------------|
C----4-2-0^2b----2b^0-------4-2-0^2b-------2^4-s0-------------------|
G-------------------------------------------------------------------|
C-3n---------s-3n--------3n-----------s-3n--------------------------|

c-------------------------------------------------------------------|
G-------------------------------------------------------------------|
G-----0-----0----------0-----0--------------------------------------|
C---2-----2-----2----2-----2-----2-s2^0-----------------------------|
G-4-----4-----4----4-----4-----4------------------------------------|
C-------------------------------------------------------------------|

or
c-------------------------------------------------------------------|
G-------------------------------------------------------------------|
G------0-----0----------0-----0-------------------------------------|
C----2-----2-----2----2-----2-----2---------------------------------|
G-------------------------------------------------------------------|
C--2-----2-----2----2-----2-----2-----------------------------------|

c-----------0----------------0--------------------------------------|
G-------------------------------------------------------------------|
G-------0---------0-----0------0-s0---------------------------------|
C----5----------5-----5----------s5^0----2^4^2^0^2b^0--2^4^2^0^2b^0-|
G-------------------------------------------------------------------|
C--8------8---8-----8-----8------------0--------------0-------------|

Play this twice
c----------0--------------------0-----------------------------------|
G--------------------------------0----------------------------------|
G------0---------0---------0--------s0----0-0-----0-------0---------| 
C----4---------4---------4----------s0----2-2-----0^2-----2^0-------|
G-------------------------------------------------------------------|
C-3------3---3--------3-------3---------2-----s-2-----s-2-----------|

then
c-----------0----------------0--------------------------------------|
G-------------------------------------------------------------------|
G-------0---------0-----0------0-s0---------------------------------|
C----5----------5-----5----------s5^0-------------------------------|
G-------------------------------------------------------------------|
C--8------8---8-----8-----8-----------------------------------------|

c----------0--------------------0-----------------------------------|
G--------------------------------0----------------------------------|
G------0---------0---------0--------s0----0-0-----0-------0---------| 
C----4---------4---------4----------s0----2-2-----0^2-----2^0-------|
G-------------------------------------------------------------------|
C-3------3---3--------3-------3---------2-----s-2-----s-2-----------|

c-----------0----------------0--------------------------------------|
G-------------------------------------------------------------------|
G-------0---------0-----0------0-s0---------------------------------|
C----5----------5-----5----------s5^0-------------------------------|
G-------------------------------------------------------------------|
C--8------8---8-----8-----8-----------------------------------------|

c----------0--------------------0----------------0------------------|
G-------------------------------------------------------------------|
G------0---------0---------0----------0------0---------0------------| 
C----4---------4---------4----------4------2---------2--------------|
G-------------------------------------------------------------------|
C-3------3---3--------3-------3---3------2-----2---2----------------|

c-------------------------------------------------------------------|
G----------5-----5---------5-----5----------5----5------5b----------|
G------0----------------0---------------0--------------0------------|
C----5---------5------5---------5-----5---------5----5--------------|
G-------------------------------------------------------------------|
C--8-----8---8-----8-----8---8------8-----8---8----8----------------|

Then play the Chorus and the bridge

Variation in the Outro (last Bridge/Outro)

c---------------------------------------2^4^2^0s0--------------------|
G--------------------------------------0-------s0--------------------|
G---5-2-0^2-----2^0-s0----5-2-0^2-----0--------s0--------------------|
C---4-2-0^2-----2^0-s0----4-2-0^2------------------------------------|
G--------------------------------------------------------------------|
C-0---------s-0---------0---------s-0--------------------------------|
Suggest correction What's this?
You can suggest a correction to this tab. Community and Mods will review your correction and vote to approve or reject it.
comments
We did not receive enough feedback on this tab! Please rate:
print report bad tab
1 2 3 4 5
I want to post or [tab]
guest
You may want to rate the tab now too:
select rating
Please do not post tabs as comments. Select "correction" instead!