Oops, an error
Loading. Please wait.

In Dreams Acoustic tab

version 4
version 4

Whole song

Interactive

145 views 3 this week
no commentswrite comment
1 2 3 4 5
3 more votes to show rating
add to favorites
×
Save as Personal and add changes to this tab that will be seen only by you. Learn more ›
×
You can save this tab as Personal to edit and correct it or add notes. All changes will be seen only by you. Learn more »
launch autoscroll
font size
0
reset
how to read this tab
guitar tuner
edit
Autoscroll
slow
fast
+/-
esc
set tempo
stop
Title: In Dreams
Artist: Ben Howard
Album: I Forget Where We Were
Tempo = 120

Legend :
h - hammer on/pull off
s - slide

Tuning : DADGAD (celtic)

https://www.youtube.com/watch?v=nqeYrWaynyc
^^THIS^^ is the version i used to make this tab.

I've separated the song in 6 parts to make it easier to read.
To figure out when to play the different parts and and how much
you have to repeat them, listen tho the link above.
Have fun :)

[Part 1]
D|----------------------------|----------------------------|
A|--------------7h-0----------|-----------------0----------|
G|-----------0--------0-------|-----------0----------------|
D|--------7--------------0----|--------0--------------0----|
A|--8s------------------------|----------------------------|
D|----------------------------|--8-----------8-----8-------|


D|----------------------------|----------------------------|
A|----------------------------|-----------------0----------|
G|-----------0-----------0----|-----------0----------------|
D|--------0-----------0-------|--------0--------------0----|
A|--------------3h-0----------|----------------------------|
D|--5s------------------------|--0-----------0-----0-------|


D|----------------------------|----------------------------|
A|--------------7h-0----------|-----------------0----------|
G|-----------0--------0-------|-----------0----------------|
D|--------7--------------0----|--------0--------------0----|
A|--8s------------------------|----------------------------|
D|----------------------------|--8-----------8-----8-------|


D|----------------------------|----------------------------|
A|----------------------------|-----------------0----------|
G|-----------0-----------0----|-----------0----------------|
D|--------0-----------0-------|--------0--------------0----|
A|----------------------------|----------------------------|
D|--5s----------3-------------|--0-----------0-----0-------|


D|----------------------------|----------------------------|
A|-----------------0----------|-----------------0----------|
G|-----------0----------------|-----------0----------------|
D|--------0--------------0----|--------0--------------0----|
A|----------------------------|----------------------------|
D|--0-----------0-----0-------|--0-----------0-----0-------|


D|----------------------------|
A|-----------------0----------|
G|-----------0----------------|
D|--------0--------------0----|
A|----------------------------|
D|--0-----------0-----0-------|

[Part 2]
D|----------------------------|----------------------------|
A|-----------------0----------|-----------------0----------|
G|-----------2----------------|-----------3----------------|
D|--------0--------------0----|--------0--------------0----|
A|----------------------------|----------------------------|
D|--3-----------3-----3-------|--5-----------5-----5-------|


D|----------------------------|----------------------------|
A|-----------------0----------|-----------------0----------|
G|-----------2----------------|-----------0----------------|
D|--------0--------------0----|--------0--------------0----|
A|----------------------------|----------------------------|
D|--3-----------3-----3-------|--2-----------2-----2-------|


D|----------------------------|----------------------------|
A|-----------------0----------|-----------------0----------|
G|-----------0----------------|-----------0----------------|
D|--------0--------------0----|--------0--------------0----|
A|----------------------------|----------------------------|
D|--3-----------3-----3-------|--2-----------2-----2-------|


D|----------------------------|----------------------------|
A|----------------------------|-----------------0----------|
G|-----------0-----------0----|-----------0----------------|
D|--------0-----------0-------|--------0--------------0----|
A|----------------------------|----------------------------|
D|--3-----------2-------------|--0-----------0-----0-------|


D|----------------------------|----------------------------|
A|-----------------0----------|-----------------0----------|
G|-----------0----------------|-----------0----------------|
D|--------0--------------0----|--------0--------------0----|
A|----------------------------|----------------------------|
D|--0-----------0-----0-------|--0-----------0-----0-------|


D|----------------------------|
A|-----------------0----------|
G|-----------0----------------|
D|--------0--------------0----|
A|----------------------------|
D|--0-----------0-----0-------|

[Part 3]
D|-----------------0----------|-----------------0----------|
A|-----------8----------------|-----------7----------------|
G|----------------------------|----------------------------|
D|--------7--------------7----|--------5--------------5----|
A|----------------------------|--0-----------0-----0-------|
D|--0-----------0-----0-------|----------------------------|


D|-----------------0----------|-----------------0----------|
A|-----------5----------------|-----------3----------------|
G|----------------------------|----------------------------|
D|--------3--------------3----|--------2--------------2----|
A|----------------------------|--0-----------0-----0-------|
D|--0-----------0-----0-------|----------------------------|

Play ^^this^^ 3 times then play vvthatvv

D|-----------------0----------|-----------------0----------|
A|----------------------------|----------------------------|
G|-----------0----------------|-----------0----------------|
D|--------0--------------0----|--------0--------------0----|
A|----------------------------|----------------------------|
D|--3-----------3-----3-------|--3-----------3-----3-------|


D|----------------------------|----------------------------|
A|-----------------0----------|----------------------------|
G|-----------0----------------|-----------0-----------0----|
D|--------0--------------0----|--------0-----------0-------|
A|----------------------------|----------------------------|
D|--2-----------2-----2-------|--3-----------2-------------|

[Part 4]
D|----------------------------|----------------------------|
A|-----------------0----------|-----------------0----------|
G|-----------0----------------|-----------0----------------|
D|--------0--------------0----|--------0-------------------|
A|----------------------------|----------------------------|
D|--0-----------0-----0-------|--0-----------0-----12s-----|


D|----------------------------|----------------------------|
A|-----------------0----------|-----------------0----------|
G|-----------7----------------|-----------7----------------|
D|--------0--------------0----|--------0--------------0----|
A|----------------------------|----------------------------|
D|--9-----------9-----9-------|--9-----------9-----9-------|


D|----------------------------|----------------------------|
A|-----------------0----------|-----------------0----------|
G|-----------7----------------|-----------7----------------|
D|--------0--------------0----|--------0--------------0----|
A|----------------------------|----------------------------|
D|--9-----------9-----9-------|--9-----------9-----9-------|

[Part 5]
D|----------------------------|----------------------------|
A|-----------------3----------|-----------------3----------|
G|-----------0----------------|-----------0----------------|
D|--------0--------------0----|--------0--------------0----|
A|----------------------------|----------------------------|
D|--5-----------5-----5-------|--5-----------5-----5-------|


D|----------------------------|----------------------------|
A|-----------------2----------|-----------------2----------|
G|-----------0----------------|-----------0----------------|
D|--------0--------------0----|--------0--------------0----|
A|----------------------------|----------------------------|
D|--5-----------5-----5-------|--5-----------5-----5-------|

[Part 6]
  This part is the final one which is mainly composed of this measure :
D|----------------------------|
A|-----------------0----------|
G|-----------0----------------|
D|--------0--------------0----|
A|----------------------------|
D|--0-----------0-----0-------|

And then Ben throws measures from the end of the part 3.
you can figure it out by ear but it doesn't have to be
spot on to sound good.



************************************

| h  Hammer-on
 

************************************
Suggest correction
Creating personal tab
Creating personal tab
You can edit any tab online and save it as your Personal.

You can edit, replace or remove any tab part or add personal notes – all changes will be seen only by you.

Personal tabs can be accessed anytime from any device, even offline.
Learn more »
Give kudos to tab author, rate the tab!
1 2 3 4 5
comments
print report bad tab
guest
You may want to rate the tab now too:
select rating
Wanna post a correction for this tab? Suggest correction