Oops, an error
Loading. Please wait.

Keep Your Head Up Tab

version 3
version 3

Whole song

Interactive

25,961 views 39 this week
1 commentread comment
1 2 3 4 5
accurate
x 6
add to favorites
launch autoscroll
font size
0
reset
how to read this tab
guitar tuner
Autoscroll
slow
fast
+/-
esc
set tempo
stop
Help us to improve Ultimate-Guitar.com Take our survey!
×
Author
Difficulty
Tuning
intermediate
B F# B E G# C#
Keep Your Head Up

Tuning EADGAE
No Capo
Not 100% Perfect but Good :)

Main Riff

E-------------------------------------------------------------------------|
A-----------0----------------0-----------------0--------------------------|
G-------0-----0---0------0-----0---0-------0-----0---0--------0------0--0-|
D-----2---2-----2------2---2-----2-------2---2-----2--------0------0----0-|
A---3----------------3--------------------------------------------------2-|
E-------------------------------------0-------------------2------3------3-|

E-------------------------------------------------------------------------|
A-----------2----------------2p0----------------0-------------------------|
G-------0-----0---0------0-------0----------0-----0---0-------0------0--0-|
D-----2---2-----2------2---2-------2------2---2-----2-------0------0----0-|
A---3----------------3--------------------------------------------------2-|
E--------------------------------------0------------------2------3------3-|

E---------------------------------------------|
A-----------2----------------2----------2p(0)-|
G-------0-----0---0------0------0---0---0-----| Let Ring Before Pull Off
D-----2---2-----2------2---2------2-----2p(0)-|
A---3----------------3------------------3p(0)-|
E---------------------------------------x-----|

Repeat this

Chorus Chords
Strumming pattern is difficult and Ben pick plays this but just play what sounds right 
to you.

E----0--0-0-0-----0--0-0-0-----0--0-0-0--0--0-0-0-|
A----0--0-0-0-----0--0-0-0-----0--0-0-0--0--0-0-0-|
G----0--0-0-0-----0--0-0-0-----0--0-0-0--0--0-0-0-| Repeat this 4 times
D----9--9-9-9-----7--7-7-7-----5--5-5-5--5--5-5-5-|
A----7--7-7-7-----5--5-5-5-----3--3-3-3--3--3-3-3-|
E----x--x-x-x-----x--x-x-x-----x--x-x-x--x--x-x-x-|

On the 4th time at the end play

E----0-----0--|
A----0-----0--|
G----0-----0--|  And go back into the riff
D----5-----0--|
A----3-----0--|
E----x-----x--|

4:04 - Outro

E--------------------|
A-----------0--------|
G-------0-----0---0--|  Play Until End
D-----4---4-----4----|
A---5----------------|
E--------------------|
Suggest correction
comments
print report bad tab
1 comment total.
0 reply
Horus444 10 wrote on September 24 2013, 05:48 pm

I think the tuning is E A D G A D... look at the live version (follow link) and you can here the open D when he picks between the strumming in the chorus. This picking between the strums is an important part of his sound if you want to master his style.

http://www.youtube.com/watch?v=WUTrNH60QWQ

guest
You may want to rate the tab now too:
select rating
Please do not post tabs as comments. Select "correction" instead!