Oops, an error
Loading. Please wait.

Oats In The Water Live Tab

19,156 views 21 this week
2 commentsread comments
1 2 3 4 5
accurate
x 4
add to favorites
launch autoscroll
font size
0
reset
how to read this tab
guitar tuner
Tab Pro tools
  • play this tab
  • loop segment
  • change instrument
  • show fretboard
  • metronome
Autoscroll
slow
fast
+/-
esc
set tempo
stop
Contributor
Difficulty
novice
Here is a simplified version, the best I could do with the limited source material. Hope 
it can be of some use. Feel free to improve upon this tab yourself.
Transcribed by Sumosoto.

Tuning: D A D D A C#

Verse:

   Go your way...
C#|----------------------|----------------------|----------------------| |
 A|----------------------|----------------------|----------------------| |
 D|----------------------|----------------------|----------------------| |
 D|------0-------0-------|------0-------0-------|------0-------0-------| |
 A|---5---5---5---5---5--|---7---7---7---7---7--|---8---8---8---8---8--| |
 D|--0-------0-------0---|--0-------0-------0---|--0-------0-------0---| |
                                                                         |
C#|-----------------------------------|---------------------|            |
 A|-----------------------------------|---------------------|            |
 D|-----------------------10--10--10--|------------8--8--8--|            |
 D|------0----------10----10--10--10--|------10----8--8--8--|            |x2
 A|---8---8---8---12--12--10--10--10--|----12--12--8--8--8--|            |
 D|--0-------0-------------0---0---0--|------------0--0--0--|            |
                                                                         |
C#|----------------------|----------------------|                        |
 A|----------------------|----------------------|                        |
 D|----------------------|----------------------|                        |
 D|------0-------0-------|------0-------0-------|                        |
 A|---5---5---5---5---5--|---5---5---5---5---5--|                        |
 D|--0-------0-------0---|--0-------0-------0---|                        |


Pre-chorus:

   And you'll find loss...
C#|------------|------------|--6-----6------|--6-----6------|
 A|------------|------------|----8-----8----|----8-----8----|
 D|--3---3--3--|--2---2--2--|------0-----0--|------0-----0--|
 D|--3---3--3--|--2---2--2--|---------------|---------------|   x2
 A|--3---3--3--|--2---2--2--|---------------|---------------|
 D|--3---3--3--|--2---2--2--|---------------|---------------|


Chorus:

   There'll be oats in the water...
C#|------------|------------|------------|---------------|
 A|------------|------------|------------|---------------|
 D|--5---5--5--|--3---3--3--|--0---0--0--|--10---10--10--|
 D|--5---5--5--|--3---3--3--|--0---0--0--|--10---10--10--|   x2
 A|--5---5--5--|--3---3--3--|--0---0--0--|--10---10--10--|
 D|--5---5--5--|--3---3--3--|--0---0--0--|--10---10--10--|

C#|--------------|--------------|--------------------|
 A|--------------|--------------|--------------------|
 D|--8--8--8--8--|--7--7--7--7--|--------------------|
 D|--8--8--8--8--|--7--7--7--7--|-----0-------0------|
 A|--8--8--8--8--|--7--7--7--7--|---5--5---5---5--5--|
 D|--8--8--8--8--|--7--7--7--7--|--0------0------0---|

C#|----------------------|----------------------|
 A|----------------------|----------------------|
 D|----------------------|----------------------|
 D|------0-------0-------|------0-------0-------|
 A|---5---5---5---5---5--|---5---5---5---5---5--|
 D|--0-------0-------0---|--0-------0-------0---|

Repeat verse, pre-chorus and chorus, before solo part.
comments
print report bad tab
2 comments total.
+1 reply
fitzpal01 wrote on April 8 2013, 01:05 pm

........................
........................
........................
.......0........0.....0.
...5........5.......5...
.0...0...0....0...0.....

I'm not sure about the Live version but on the EP this is the picking pattern, like in Diamonds.

0 reply
sumosoto wrote on November 7 2013, 09:18 am

That makes a lot more sense, thanks :)

I want to post or [tab]
guest
You may want to rate the tab now too:
select rating
Please do not post tabs as comments. Select "correction" instead!