Oops, an error
Loading. Please wait.

Old Pine Tab

version 4
version 4

Interactive

59,159 views 120 this week
no commentswrite comment
1 2 3 4 5
excellent!
x 18
add to favorites
launch autoscroll
font size
0
reset
how to read this tab
guitar tuner
Autoscroll
slow
fast
+/-
esc
set tempo
stop
Help us to improve Ultimate-Guitar.com Take our survey!
×
Author
Capo
3rd fret
-------------------------------------------------------------------------------
                             Old Pine - Ben Howard
-------------------------------------------------------------------------------
Tabbed by: Neil Wicker
Email: wicker101@hotmail.co.uk
YouTube: http://bit.ly/NeilWickerMusic

Tuning: Standard

capo 3

This is how I play old pine in standard tuning just to save retuning all the time
(I've also done black flies, diamonds, further away, everything and only love).
It's not a perfect match to the recording (ben's obscure tuning makes that impossible)
but it sounds pretty good. Here's a clip of me playing the different parts so you can 
see what it sounds like - http://soundcloud.com/wicker101/old-pine
hope you enjoy it :)


[Intro]

Dsus2
e|-----------5p3---------3s2---------2p0---------0--|
B|--------3-----------3-----------3-----------3-----|
G|-----2-----------2-----------2-----------2--------|
D|--0-----------0-----------0-----------0-----------|
A|--------------------------------------------------|
E|--------------------------------------------------|


e|--------------------------------------------------|
B|--------------3-----------------------3-----------|
G|--------2--------------2--------2--------------2--|
D|-----0-----0--------0--------0-----0--------0-----|
A|--2--------------2--------2--------------2--------|
E|--------------------------------------------------|

e|--------------------------------------------------|
B|--------------3-----------------------3-----------|
G|--------2--------------2--------2--------------2--|
D|-----2-----2--------2--------2-----2--------2-----|
A|--0--------------0--------0--------------0--------|
E|--------------------------------------------------|


[Verse 1]

e|--------------------------------------------------|
B|--------------------------------------------------|
G|---------------2--------2-------------------------|
D|-----4p2p0-----------0--------4p2p0-----2p0--2p0--|
A|--5---------0-----0--------5---------0------------|
E|--------------------------------------------------|

e|---------------------------|--------------------------------------------------|
B|---------------------------|--------------3-----------------------3-----------|
G|---------------2--------2--|--------2--------------2--------2---------------2-|
D|-----4p2p0-----------0-----|-----0-----0--------0--------0-----0--------0-----|
A|--5---------0-----0--------|--2--------------2--------4--------------4--------|
E|---------------------------|--------------------------------------------------|

Chorus: (the first chord is difficult but it gets easier once you get used to it, use
your first finger to bar the 2 strings on the 2nd fret)

e|--0------0-----0-----0------0-------0---|
B|--3------3-----3-----3------3-------3---|
G|--2------2-----2-----2------2-------2---|
D|--2------0-----2-----0------0-------2---|
A|--5------4-----5-----4------2-------0---|
E|--x------x-----x-----x------x-------0---|


[Verse 2]

e|--------------------------------------------------|
B|--------------------------------------------------|
G|---------------2--------2-------------------------|
D|-----4p2p0-----------0--------4p2p0-----2p0--2p0--|
A|--5---------0-----0--------5---------0------------|
E|--------------------------------------------------|

e|---------------------------|--------------------0--------------------0---|
B|---------------------------|--------------3-----3--------------3-----3---|
G|---------------2--------2--|--------2-----------2--------2-----------2---|
D|-----4p2p0-----------0-----|-----0-----------0--0-----0-----------0--0---|
A|--5---------0-----0--------|--2--------2--------2--4--------4--------4---|
E|---------------------------|---------------------------------------------|


[Chorus]

e|--0------0-----0-----0------0-------0---|
B|--3------3-----3-----3------3-------3---|
G|--2------2-----2-----2------2-------2---|
D|--2------0-----2-----0------0-------2---|
A|--5------4-----5-----4------2-------0---|
E|--x------x-----x-----x------x-------0---|


[Bridge]

e|--0---0--|
B|--3---3--|
G|--2---2--|
D|--2---0--| x8 (or so, sliding from 5 to 4 on the A string)
A|--5---4--|
E|--x---x--|

and

e|--------|
B|--------|
G|--------|
D|--9--7--|  occasioanlly
A|--0--0--|
E|--7--5--|



************************************

| x  Dead note
| p  Pull-off
| s  Slide

************************************
Suggest correction
comments
print report bad tab
guest
You may want to rate the tab now too:
select rating
Wanna post a correction for this tab? Suggest correction