Oops, an error
Loading. Please wait.

Old Pine Tab

version 5
version 5

Interactive

156,592 views 507 this week
4 commentsread comments
1 2 3 4 5
accurate
x 6
add to favorites
launch autoscroll
font size
0
reset
how to read this tab
guitar tuner
Autoscroll
slow
fast
+/-
esc
set tempo
stop
Help us to improve Ultimate-Guitar.com Take our survey!
×
Contributor
Capo
5th fret
Tuning CGCGGC Capo 5th fret

http://thebestguitarchords.blogspot.de/


[Intro]

C|----7-----5-----4-----2-----7-----5-----4-----0---|
G|---9-----7-----5-----4-----9-----7-----5-----4----|
G|--0-----0-----0-----0-----0-----0-----0-----0-----|
C|-0-----0-----0-----0-----0-----0-----0-----0------|
G|--------------------------------------------------|
C|--------------------------------------------------|

C|--------0---------------0-------------0------------0-----|
G|---4--------4------4-------4-----------------------------|
G|--0-------0---0---0------0---0----0------3-----0------3--|
C|---------------------------------2------2-2---2------2-2-|
G|-2----2---------2----2---------0----0-------0----0-------|
C|---------------------------------------------------------|

do this a few times and at the last time play  the last
part slowlier/ fade it out


[Verse]

C|------------------------------------------------------------|
G|------------------------------------------------------------|
G|------------0----0-----------------------------------0----0-|
C|--4p--p2--0----0------4p--p2--0---2p--2p---4p--p2--0----0---|
G|------------------------------------------------------------|
C|-0------------0------0--------------------0------------0----|


C|------0---0--------0---0-|
G|----------0------------0-|
G|---0------0-----0------0-|
C|--0-----0-0----2-----2-2-|
G|-2---2----2--4----4----4-|
C|----------x------------x-|


[Chorus]

C|-0---0---0---0---0---0-|
G|-0---0---0---0---0---0-|
G|-0---0---0---0---0---0-|
C|-4---2---4---2---0---2-|
G|-5---4---5---4---2---4-|
C|-0---0---0---0---0---0-|


[Bridge]

C|-0--0--0--0--0--0--0--0-0-0-0--0--0--0--0--0--0--0-0-0-0--0-0-0-0--|
G|-4-/5--5--4-/5--4-/5--7-7-7-7--4-/5--5--4-/5--5--2-2-2-2--0-0-0-0--|
G|-0--0--0--0--0--0--0--0-0-0-0--0--0--0--0--0--0--0-0-0-0--0-0-0-0--|    repeat this a few
C|-0--0--0--0--0--0--0--0-0-0-0--0--0--0--0--0--0--0-0-0-0--0-0-0-0--|    times
G|-4-/5--5--4-/5--4-/5--7-7-7-7--4-/5--5--4-/5--5--2-2-2-2--0-0-0-0--|
C|-0--0--0--0--0--0--0--0-0-0-0--0--0--0--0--0--0--0-0-0-0--0-0-0-0--|


C|---|
G|-7-|  repeating this very fast and get slowlier to get in the verse (play this time the
G|---|  verse with down strums)
C|-7-|
G|---|
C|-7-|


************************************

| x  Dead note
| p  Pull-off
| /  Slide up

************************************
comments
print report bad tab
4 comments total. Showing first comments.
0 reply
Pillendreher 131 wrote on July 3 2012, 02:38 am

Great tab! You forgot the slide in the intro ;)

0 reply
curriedan96 11 wrote on July 24 2013, 03:35 pm

Hi I'm relatively new to using alternative tunings and was wondering if I tune the guitar to CGCGGC before I put the capo on or does the capo naturally adjust it to this tuning?

0 reply
TheRealDilara 141 wrote on November 9 2013, 10:14 am

you need to tune the guitar to CGCGGC before you put the capo on :)

I want to post or [tab]
guest
You may want to rate the tab now too:
select rating
Please do not post tabs as comments. Select "correction" instead!