Oops, an error
Loading. Please wait.

Only Love Bass Tab

version 1
version 1

Whole song

Interactive

7,684 views 33 this week
no commentswrite comment
1 2 3 4 5
x 7
add to favorites
launch autoscroll
font size
0
reset
guitar tuner
Autoscroll
slow
fast
+/-
esc
set tempo
stop
Help us to improve Ultimate-Guitar.com Take our survey!
×
Author
Difficulty
intermediate
Verse

G|------------------------------------------------------------------|
D|------------------------------------------------------------------|
A|---3--6--6-6------3--6--6-6-------3-6--6-6-----3-6--6-6-----------|
E|-4--------------4---------------4------------4--------------------|

Instrumental parts

G|-----------------------------------------------------------------|
D|-----------------------------------------------------------------|
A|---3-3--6--6-6------3-3--6--6-6----3-3---6--6-6------------------|
E|-4----------------4--------------4-------------------------------|

Chorus
                        Second Time
G|--------------------|---------------------------------------------|
D|-------3------------|--------3------------------------------------|
A|---------------3----|----------------3--------6-------------------|
E|-4-3-1----4-3-1-----|-4-3-1----4-3-1----4-3-1---------------------|

Bass solo
G|------------------------------------------------------------------|
D|------------------------------------------------------------------|
A|-8-----------3--6-6--------8-----------3---6-6--8-----------------|
E|---8-1--1-1---------6--------8-1--1-1-----------------------------|

you can also play the bass solo like this

G|------------------------------------------------------------------|
D|-3-------------1-1---------3--------------1-1-----3---------------|
A|--3---------3------1--------3---------3---------------------------|
E|----1--1-1--------------------1--1-1------------------------------|
Suggest correction
comments
print report bad tab
guest
You may want to rate the tab now too:
select rating
Wanna post a correction for this tab? Suggest correction