Oops, an error
Loading. Please wait.

Only Love Tab

version 2
version 2

Interactive

17,830 views 3 this week
no commentswrite comment
1 2 3 4 5
1 last vote to show rating
add to favorites
launch autoscroll
font size
0
reset
how to read this tab
guitar tuner
Autoscroll
slow
fast
+/-
esc
set tempo
stop
Help us to improve Ultimate-Guitar.com Take our survey!
×
Difficulty
Capo
advanced
3rd fret
Does not contain the solo he plays sorry.
Hello anyway i couldnt find any good tab for this song so i learned it by ear and 
thought id put up the tab i came up with.. its seems right to my ear :)

Tuning:
E > A#
A > F
D > C
G > G
B > G
E > C

Capo on 3rd

Main Verse: (relative to capo)
C-----------------------0-0-0-12--12-0-0-0-12--12--------------------------|
G------5-2-0-----5-2-0--0-0-0-12--12-0-0-0-12--12--------------------------|
G------0-0-0-----0-0-0--0-0-0-12--12-0-0-0-12--12--------------------------|
C--5-5-5-5-5-5-5-5-5-5--101010101010-101010101010--------------------------|
F--0-0-0-0-0-0-0-0-0-0--0-0-0-0-0-0--0-0-0-0-0-0---------------------------|
A#-5-5-5-5-5-5-5-5-5-5--9-9-9-9-9-9--9-9-9-9-9-9---------------------------|

however i think the following sounds better when you play it:
C-----------------------0-0-0-12--12-0-0-0-12--12--------------------------|
G------5-0-------5-0----0-0-0-12--12-0-0-0-12--12--------------------------|
G------0---------0------0-0-0-12--12-0-0-0-12--12--------------------------|
C--5-5-5---5-5-5-5---5--101010101010-101010101010--------------------------|
F--4-4-4-----4-4-4------8-8-8-8-8-8--8-8-8-8-8-8---------------------------|
A#-5-5-5-----5-5-5------9-9-9-9-9-9--9-9-9-9-9-9---------------------------|

Chorus?
C---------------------------------------|
G---------------------------------------|
G---------------------------------------|
C---5-5-4-4-10-10-15/12-12-15/12-12-----|
F---------------------------------------|
A#--5-5-3-3-9--9--0---0---0---0---0-----|

I hope this helped you on your way to learning the whole song. Thanks
-tadhg
Suggest correction
Give kudos to tab author, rate the tab!
1 2 3 4 5
comments
print report bad tab
guest
You may want to rate the tab now too:
select rating
Wanna post a correction for this tab? Suggest correction