Oops, an error
Loading. Please wait.

Only Love Tab

version 5
version 5

Interactive

25,781 views 18 this week
no commentswrite comment
1 2 3 4 5
x 9
add to favorites
launch autoscroll
font size
0
reset
how to read this tab
guitar tuner
Autoscroll
slow
fast
+/-
esc
set tempo
stop
Help us to improve Ultimate-Guitar.com Take our survey!
×
Author
Difficulty
Capo
intermediate
3rd fret
Ben Howard

Capo 3

Tuning
-C
-G
-G
-C
-F
-Bb


Intro
----------------|----------------|------12--12--0-|------12--12----|
----------------|----------------|0-0---12--12--0-|--0---12--12----|
------5-2-0-----|--------5-2-0---|0-0---0---0---0-|--0---0---0-----|
5-5---5-------5-|--5---5-5-------|9-9---9---9---9-|--9---9---9-----|
----------------|----------------|----------------|----------------|
4-4---4-------4-|--4---4-4-------|7-7---7---7---7-|--7---7---7---0-|


----------------|----------------|----------------|----------------|
----------------|----------------|----0-------0---|----0-------0---|
------5-2-0-----|--------5-2-0---|--0-0-----0-0---|--0-0-----0-0---|
5-5---5-------5-|--5---5-5-------|9---9---9---9---|9---9---9---9---|
----------------|----------------|----------------|----------------|
4-4---4-------4-|--4---4-4-------|7-----7-------7-|------7-------0-|


Verse

----------------|----------------|------12--12--0-|------12--12----|
----------------|----------------|0-0---12--12--0-|--0---12--12----|
------5-2-0-----|--------5-2-0---|0-0---0---0---0-|--0---0---0-----|
5-5---5-------5-|--5---5-5-------|9-9---9---9---9-|--9---9---9-----|
----------------|----------------|----------------|----------------|
4-4---4-------4-|--4---4-4-------|7-7---7---7---7-|--7---7---7---0-|    x5


----------------|----------------|----------------|----------------|
----------------|----------------|----0-------0---|----0-------0---|
------5-2-0-----|--------5-2-0---|--0-0-----0-0---|--0-0-----0-0---|
5-5---5-------5-|--5---5-5-------|9---9---9---9---|9---9---9---9---|
----------------|----------------|----------------|----------------|
4-4---4-------4-|--4---4-4-------|7-----7-------7-|------7-------0-|


----------------|----------------|----------------|--------|
----------------|----------------|----------------|--------|
----------------|----------------|----------------|--------|
5-----4-------9-|------12/9----9-|------12/9----9-|--------|
----------------|----------------|----------------|--------|
4-----2-------7-|------7---------|------7---------|------0-|


----------------|----------------|----------------|----------------|--------|
----------------|----------------|----------------|----------------|--------|
----------------|----0-------0---|----0-------0---|----0-------0---|--------|
5-----4-------9-|--------12------|12------12------|12------12------|12------|
----------------|----------------|----------------|----------------|--------|
4-----2-------7-|------0-------0-|------0-------0-|------0-------0-|--------|   x2


----------------|0---------------|----------------|0---------------|
----------------|--0-------------|----------------|--0-------------|
----0-----------|----0-----------|----0-----------|----0-----------|
--5-------------|------5-----0---|--9-------------|------9-----9---|
----------------|----------4-----|----------------|----------7-----|
4-------------4-|----------------|7-------------7-|----------------|


----------------|0---------------|----------------|0---------------|
----------------|--0-------------|----------------|--0-------------|
--0-------------|----0-----------|--0-------------|----0-----------|
----5-----------|------5-----0---|----9-----------|------9-----9---|
----------------|----------4-----|----------------|----------7-----|
4-------------4-|----------------|7-------------7-|----------------|


----------------|----------------|----------------|----------------|
----------------|----------------|----------------|----------------|
0---------------|----------------|0---------------|----------------|
5---------------|----------------|9---------------|----------------|
4---------------|----------------|7---------------|----------------|
4---------------|----------------|7---------------|----------------|   x3


----------------|----------------|----------------|----------------|
----------------|----------------|----------------|----------------|
0---------------|----------------|0-0-0-0-0-0-0-0-|0-0-0-0-0-0-0-0-|
5---------------|----------------|9-9-9-9-9-9-9-9-|9-9-9-9-9-9-9-9-|
4---------------|----------------|7-7-7-7-7-7-7-7-|7-7-7-7-7-7-7-7-|
4---------------|----------------|7-7-7-7-7-7-7-7-|7-7-7-7-7-7-7-7-| 


----------------|----------------|----------------|----------------|
----------------|----------------|----------------|----------------|
0-0-0-0-0-0-0-0-|0-0-0-0-0-0-0-0-|0-0-0-0-0-0-0-0-|0-0-0-0-0-0-0-0-|
5-5-5-5-5-5-5-5-|5-5-5-5-5-5-5-5-|9-9-9-9-9-9-9-9-|9-9-9-9-9-9-9-9-|
4-4-4-4-4-4-4-4-|4-4-4-4-4-4-4-4-|7-7-7-7-7-7-7-7-|7-7-7-7-7-7-7-7-|
4-4-4-4-4-4-4-4-|4-4-4-4-4-4-4-4-|7-7-7-7-7-7-7-7-|7-7-7-7-7-7-7-7-| 


----------------|----------------|----------------|----------------|
----------------|----------------|----------------|----------------|
0-0-0-0-0-0-0-0-|0-0-0-0-0-0-0-0-|0-0-0-0-0-0-0-0-|0-0-0-0-0-0-0-0-|
5-5-5-5-5-5-5-5-|5-5-5-5-4-4-4-4-|5-5-5-5-5-5-5-5-|5-5-5-5-5-5-5-5-|
4-4-4-4-4-4-4-4-|4-4-4-4-2-2-2-2-|5-5-5-5-5-5-5-5-|5-5-5-5-5-5-5-5-|
4-4-4-4-4-4-4-4-|4-4-4-4-2-2-2-2-|0-0-0-0-0-0-0-0-|0-0-0-0-0-0-0-0-|


----------------|----------------|----------------|----------------|
----------------|----------------|----------------|----------------|
0-0-0-0-0-0-0-0-|0-0-0-0-0-0-0-0-|0-0-0-0-0-0-0-0-|0---0---0---0---|
5-5-5-5-5-5-5-5-|9-9-9-9-9-9-9-9-|5-5-5-5-5-5-5-5-|5---5---5---0---|
4-4-4-4-4-4-4-4-|7-7-7-7-7-7-7-7-|5-5-5-5-5-5-5-5-|5---5---5---0---|
4-4-4-4-4-4-4-4-|7-7-7-7-7-7-7-7-|0-0-0-0-0-0-0-0-|0---0---0---0---|

Solo Guitar
Suggest correction
comments
print report bad tab
guest
You may want to rate the tab now too:
select rating
Wanna post a correction for this tab? Suggest correction