Oops, an error
Loading. Please wait.

Promise Tab

version 3
version 3

Whole song

Interactive

4,715 views 18 this week
no commentswrite comment
1 2 3 4 5
please rate
add to favorites
launch autoscroll
font size
0
reset
how to read this tab
guitar tuner
Tab Pro tools
  • play this tab
  • loop segment
  • change instrument
  • show fretboard
  • metronome
×
Best way to learn
"Promise"
Autoscroll
slow
fast
+/-
esc
set tempo
stop
Contributor
Difficulty
intermediate
tuning - cfcgfc

capo on second

all the frets relitive to capo 

intro and verse

c|------------------------------|------------------------------|
f|------------------------------|------------------------------|
c|----------------12------------|----------------12------------|
g|----------0-------------------|----------0-------------------|
f|------11---------------11-----|------11---------------11-----|
c|---0---------0------0---------|---0---------0------0---------|

c|------------------------------|------------------------------|
f|------------------------------|------------------------------|
c|----------------12------------|----------------12------------|
g|----------0-------------------|----------0-------------------|
f|------11---------------11-----|------11---------------11-----|
c|---0---------0------0---------|---0---------0------0---------|

c|------------------------------|------------------------------|
f|------------------------------|------------------------------|
c|----------------12------------|----------------12------------|
g|----------0-------------------|----------0-------------------|
f|------11---------------11-----|------11---------------11-----|
c|---9---------9------9---------|---9---------9------9---------|

c|------------------------------|-----------------------------||
f|------------------------------|----------------------------o||
c|----------------12------------|---------------12------------||
g|----------0----------------0--|---------0----------------0--||
f|------11---------------11-----|-----11---------------11----o||
c|---9---------9------9---------|--9---------9------9---------||


Bridge:

c|------------------------------|------------------------------|
f|------------------------------|------------------------------|
c|----------------12------------|----------------12------------|
g|---------0--------------------|---------0--------------------|
f|------9-----------------9-----|------9-----------------9-----|
c|--11--------11------11--------|--11--------11------11--------|
  "and   maybe..."

Section 2:

c|-----------0-------------------|----------------------------x--|
f|--------------------0----------|---0--------------0---------x--|
c|-------------------------------|----------------------------12-|
g|------12-----------------0---0-|--------0---0---------0---0-x--|  
f|------0---------11----11-------|-11--11--------11--11-------11-|
c|---0-----0-----------------0---|----------0-------------0---x--|

c|-----------0-------------------|----------------------------x--|
f|--------------------0----------|---0--------------0---------x--|
c|-------------------------------|----------------------------12-|
g|------12-----------------0---0-|--------0---0---------0---0-x--|  
f|------0---------11----11-------|-11--11--------11--11-------11-|
c|---9-----9-----------------9---|----------9-------------9---9--|




Section 3:

c|------------------------------|------------------------------|
f|--------------------x---------|-------x----------------------|
c|-------12--------10-x---------|----9--x-------9-10-9---------|
g|-------0---------0--x---------|----0--x-------0--------0-----|  (x2)
f|--------------------x---------|-------x----------------------|
c|---0---------0------x---------|--0----x--0-------------------|
        "who        am             I             darlin'"
c|------------------------------|------------------------------|
f|--------------------x---------|-------x----------------------|
c|-------12--------10-x---------|----9--x-------9-10-9---------|
g|-------0---------0--x---------|----0--x-------0--------0-----|  (x2)
f|--------------------x---------|-------x----------------------|
c|---9---------9------x---------|--9----x--9-------------------|
comments
We did not receive enough feedback on this tab! Please rate:
print report bad tab
1 2 3 4 5
I want to post or [tab]
guest
You may want to rate the tab now too:
select rating
Please do not post tabs as comments. Select "correction" instead!