Oops, an error
Loading. Please wait.

She Treats Me Well tab

version 1
version 1

Whole song

Interactive

2,767 views 45 this week
no commentswrite comment
1 2 3 4 5
x 4
add to favorites
×
Save as Personal and add changes to this tab that will be seen only by you. Learn more ›
×
You can save this tab as Personal to edit and correct it or add notes. All changes will be seen only by you. Learn more »
launch autoscroll
font size
0
reset
how to read this tab
guitar tuner
edit
Autoscroll
slow
fast
+/-
esc
set tempo
stop
-----------------------------------------------------------------
                She Treats Me Well - Ben Howard
-----------------------------------------------------------------

Tabbed By : Aeonoptic
e-mail: aeonoptic@gmail.com

****Tuning: CGBbGFBb******

Capo 5 except 6th string (sounds as CCEbCBbEb, open Cm7; tab is relative to capo for all covered strings)
x= thumb slap

Intro/verses:
Bb|------0-0----0-----|-------------------|--0----0--|------0-----0----|---------------0|
F |------0----0---0---|--------2-2--------|-5-h7--7p5|------------0----|----------------|
G |---2--2----2---2---|------0-0-0-2p0----|3---------|---2--------2----|--------0----0--|
Bb|------0----0-------|----0--------------|----------|------------0----|----0h7---------|
G |-------------------|----------------0--|----------|-----------------|----------------|
C |10---------------10|7h8-----0---------0|----------|10-------10----10|7h8-------0-----|

Bb|---------------|-------0------0----|--------------0----|--0---0-0------|
F |---------------|--------------0----|----------0--------|-5-h7-7-7p5----|
G |---------------|---2----------2----|------0-----0---0--|3--------------|
Bb|--4p2-----2p0--|--------------0----|----0--------------|---------------|
G |---------------|----------0h3------|-------------------|---------------|
C |0-----x-0-----x|10---x----------x-0|7h8----0----------x|------------x-0|

Bb |------0---------7--|----------0-0-------|
F |----------------0--|----------2---2--5p2|
G |---2----2----2-----|------0---0---------|
Bb|-------------------|----0-----0---------|
G |-------------------|--------------------|
C |10--------10------x|7h8-----0-----------|

Basically the same under the verses with some variation in picking

Chorus:
Bb|--------|---------|--------|---------7-5-4|--------|---------7-5-4|--------|---------|------|---+7-|
F |--------|---------|--------|--------------|--------|--------------|--------|---------|---0h2|---+7-|
G |--------|---------|--------|--------------|--------|--------------|--------|---------|---0--|---+7-|
Bb|10-9----|---------|10-9----|--------------|10-9----|--------------|10-9----|---------|------|---+7-|
G |--------|---------|--------|--------------|--------|--------------|--------|---------|------|------|
C |5--5-3-x|0-x-10-x-|5--5-3-x|0-x-10-x------|5--5-3-x|0-x-10-x------|5--5-3-x|0-x-10-x-|0-----|0-----|
 
There's a second guitar arpeggiating under the chorus, if you want to emulate it
simply arpeggiate the capoed strings

Next verses are again variations of the above, and chorus is identical

Outro:
Bb|--+7----7br9-------|---+7----7br9-----|--+7----7br9-------|--+7-----------|
F |-----+7------7br8p5|------+7------7br8|-----+7------7br8p5|-----+7-8p7-5-5|
G |-------------------|------------------|-------------------|---------------|
Bb|-------------------|------------------|-------------------|---------------|
G |-------------------|------------------|-------------------|---------------|
C |0------------------|0-----------------|0------------------|0--------------|

Bb|-----------------5-5|----------------5--|-----------------5-5|------------------5|
F |-----------------0-0|----------------0-0|-----------------0-0|------------------0|
G |-----------------0-0|----------------0--|-----------------0-0|------------------0|
Bb|----7---4-----2--0-0|----7---4-----2-0--|----7---4-----2--0-0|----7---4---4p2p0--|
G |--7---5-----3-------|--7---5-----3------|--7---5-----3-------|--7---5------------| x2
C |0---------x---------|0---------x--------|0---------x---------|0---------0--------|

The remainder of the outro is essentially just this with harmonics instead of
the descending plucked bit, which I can't quite work out,
but I believe it's on the 7th and 5th fret

| /  slide up
| \  slide down
| h  hammer-on
| p  pull-off
| ~  vibrato
| +  harmonic
| x  Mute note
Suggest correction
Creating personal tab
Creating personal tab
You can edit any tab online and save it as your Personal.

You can edit, replace or remove any tab part or add personal notes – all changes will be seen only by you.

Personal tabs can be accessed anytime from any device, even offline.
Learn more »
comments
print report bad tab
guest
You may want to rate the tab now too:
select rating
Wanna post a correction for this tab? Suggest correction