Oops, an error
Loading. Please wait.

Soldiers Tab

version 2
version 2

Whole song

9,870 views 21 this week
3 commentsread comments
1 2 3 4 5
x 7
add to favorites
launch autoscroll
font size
0
reset
how to read this tab
guitar tuner
Autoscroll
slow
fast
+/-
esc
set tempo
stop
Help us to improve Ultimate-Guitar.com Take our survey!
×
Author
Difficulty
intermediate
-------------------------------------------------------------------------------
                            SOLDIERS - Ben Howard
-------------------------------------------------------------------------------
Tabbed by: Fredrik Segelstad
E-mail: Fredrik.segel@gmail.com

Tuning: CFCGGC


Listen here for timing http://www.youtube.com/watch?v=bWhm-H7M8Us

Thanks to zetitooliveira on YouTube for letting me know the tuning


If you prefer a video tutorial RyaanMusic put one up on YouTube
http://www.youtube.com/watch?v=xqTDmjjQ77M


Intro:

c|----0-----0---|   ----0---|   
G|------0-0---0-|   ------0-|
G|--------------|   --------|   
C|--0-----------|x2 --------|x4   A second guitar can repeat this through the 
F|--------------|   --------|     verse
C|--------------|   --5-----|   

Verse:

c|---------------------------------------------0-----|
G|-0--0---0---0--0---0-----0---0---0--0--0-----0-----|
G|-0--0---0---0--0---0-----0---0---0--0--0-----0-----|
C|-0--0---0---0--0---0-----0---0---0--0--0-----0-----| Repeat
F|-7--12--11--9--11--7-----12--11--9--7--9-----0-----|
C|---------------------------------------------5-----|

Chorus:

c|-------------------------|    ------------------------0----------------|
G|-------------------------|    ------------------------0----------------|
G|--0----10---9--7---------|    ---0---10--9--7---------0----------------|
C|--9-----9---9--9---11----|x2  ---9----9--9--9---11----0----------------|
F|--9-----0---0--0----9----|    ---0----0--0--0----9----0----------------|
C|--9-----9---9--9----7----|    ---9----9--9--9----7----5----------------|

End:

c|---0--|
G|---0--|
G|---0--|
C|---0--| Let it ring
F|--11--|
C|---0--|


************************************

| /   slide up
| \   slide down
| h   hammer-on
| p   pull-off
| ~   vibrato
| +   harmonic
| x   Mute note
| b   Bend
| pb  Pre-bend
| br  Bend release
| pbr Pre-bend release
| brb Bend release bend

************************************
Suggest correction
comments
print report bad tab
3 comments total.
0 reply
clrk.williams 143 Jul 09, 2012 01:34 AM

Its pretty accurate, but wrote the tab upside down!

0 reply
FredrikS 52 Jul 17, 2012 11:03 PM

oh crap, haha, I'll fix that

+1 reply
Pillendreher 106 Sep 11, 2012 02:03 PM

Very nice tab! With Ryan's tutorial, it gets very easy to learn this outstanding song.

guest
You may want to rate the tab now too:
select rating
Wanna post a correction for this tab? Suggest correction