Oops, an error
Loading. Please wait.

The Fire tab

343 views 18 this week
no commentswrite comment
1 2 3 4 5
3 more votes to show rating
add to favorites
×
Save as Personal and add changes to this tab that will be seen only by you. Learn more ›
×
You can save this tab as Personal to edit and correct it or add notes. All changes will be seen only by you. Learn more »
launch autoscroll
font size
0
reset
how to read this tab
guitar tuner
edit
Autoscroll
slow
fast
+/-
esc
set tempo
stop
About this tab version
This isn't a personal tab, just found it online because UG didn't have it in store. Was this info helpful? Yes No
Tuning: A# G C E F C with 4string Capo on high strings at 5th Fret

[Intro
]
C |-------------------0----------------------------------|
F |------------2b-------2--------------------------------|
E |---------1---------------1-------------1-1----1-s1----|
C |------2---------------------2-h4p2-----2-2----2-s2----|
G |---0---------------------------------0------0---------|
A#|------------------------------------------------------|

C |-------------------------0h2p0-------------------------|
F |--------2------2h4p2p0------------0h2bp0---------------|
E |------0-------0----------------------------------------|
C |----0-------0------------------------------------------|
G |-----------------------------------------0-------------|
A#|--7-------7--------------------------------------------|

C |-------------------------------------------------------|
F |---------2b---------------------------------------2----|
E |-------1-------1p0-h1p0-------h1p0--------------0------|
C |-----2------------------------------p0--------0--------|
G |---0---------------------------------------------------|
A#|--------------------------------------------7----------|

C |------------------------------------------------------------------------|
F |---0------0-------0-------0-----------------------2---4----4p2p0--------|
E |---8\6----6\5-----5\3-----3---------------------0-----0-0--0-----s0-----|
C |---9\7----7\5-----5\4--------5p4p2-h4-p0------0----------0-----------0--|
G |0-------0------0-------0------------------------------------------------|
A#|--------------------------------------------7-------s-------------------|

C |------------------------------------------------------------------------|
F |----0------0-------0-------0-----------------------2-------4----4p2p0---|
E |----8\6----6\5-----5\3-----3---------------------0-------0---0-------0--|
C |----9\7----7\5-----5\4--------5p4p2-h4-p0------0--------0-------------0-|
G |-0-------0------0-------0-----------------------------------------------|
A#|---------------------------------------------7--------7-----------------|

C |-------------------------------------------------------------------0---------------|
F |----0------0-------0-------0-----------------------2---2----------2-2-----2-----0--|
E |----8\6----6\5-----5\3-----3---------------------0-----0--------0-----------0------|
C |----9\7----7\5-----5\4--------5p4p2-h4-p0------0-------0-------0--------!-----0----|
G |-0-------0------0-------0----------------------------------------------------------|
A#|---------------------------------------------7-------7-------7---------7-----------|

C |----------------------------------------------|
F |-----2brb----------------------------2-----2--|             bend release-bend
E |---1-------1h3-p1h3-p1--s1p0-------0------0---|
C |--2-----------------------p0-----0-------0----|
G |0---------------------------------------------|
A#|-------------------------------7--------7-----|

[Main Part 1](picking)
C |-----------------------------------------------|
F |--------2-------------4---------------5--------|
E |-----1-------------3---------------5-----5-----|
C |---2-------2-----4--------4------5-------5-----|
G |-0-----------0-0------------0-0----------0-----|
A#|-----------------------------------------------|

C |----------------------------------------------|
F |--------2---------------2--------------2---s2-|
E |----0-----0---------0-----0--------0-----0-s0-|
C |---0--------0------0--------0-----0--------s0-|
G |-------------------------------------------s0-|
A#|-7----7-------7-7----7-------7-7----7---------|

C |-------------------------------------------------------------------------|
F |---------2------------------4--------5-------5-------4------4------------|
E |----1------1-----------3------3--------3-------3-------3------3p0--------|
C |--2----------2-------4----------4--------4-------4-------4--------p0-----|
G |0-----0----------0-0-----0-----------------------------------------------|
A#|-------------------------------------------------------------------------|

C |---------------------------------------------|
F |-------2--------------2--------------2-------|
E |---0-----0--------0-----0--------0-----0-----|
C |--0--------0-----0--------0-----0--------0---|
G |---------------------------------------------|
A#|7----7-------7-7----7-------7-7----7-------7-|

C |------------------------------------------------------------------|
F |---------2---------------------------------2--------------2-------|
E |----1------1-------1h3p1--1-1--p0------0-----0--------0-----0-----|
C |--2----------2------------------------0--------0-----0--------0---|
G |0-----0-----------------------------------------------------------|
A#|------------------------------------7----7-------7-7----7-------7-|

C |---------------------------------------------------------------|
F |---------------------------------------------------------------|
E |---1--1---1----1--1----1-----1--1---1----1--1----1----1--1---1-|
C |---2--2---2---22--2----2----22--2---2---22--2----2----2--2---2-|
G |-0------0----0-------0----0-------0----0-------0----0------0---|
A#|---------------------------------------------------------------|

C |------------------------------------------------------------|
F |---------2-------------2-------------2--------------2-------|
E |-----0-------------0-------------0--------------0------0----|
C |----0-------0-----0-------0-----0-------0------0--------0---|
G |------------------------------------------------------------|
A#|--7----7------7-7----7------7-7----7------7--7----7-------7-|

C |-----------------------------------------------------------------------------------|
F |----------2-------4------2-------p0-------------2-------------2-------------2------|
E |-----1---------1----1-------1------p0-------0-------------0-------------0----------|
C |---2----------2-------2-------2------------0-------0-----0-------0-----0-------0---|
G |-0-----0---------------------------------------------------------------------------|
A#|-----------------------------------------7----7------7-7----7------7-7----7------7-|

C |----------------------------------------------------|
F |----------2--------4-----4-----4-----4-----2--------|
E |-----1------1--------1-----1-----1-----1-----1p0----|
C |---2----------2--------2-----2-----2-----2-------2--|
G |-0-----0--------0-----------------------------------|
A#|----------------------------------------------------|

C |-----------------------------------------------------------s0-|
F |---------2-------------2-------------2-------------2-------s2-|
E |-----0-------------0-------------0-------------0-----------s0-|
C |----0-------0-----0-------0-----0-------0-----0------------s0-|
G |--------------------------------------------------------------|
A#|--7----7------7-7----7------7-7----7------7-7----7------------|

C |-----m---------m----------------------------------------------------|
F |-----m---------m-------2--------2----------4---5--------4-----4-2p0-|       =Connector 1
E |----s1----1-1-s1-----1--------1---s1-----1-------1------------------|
C |---2------2-2-s2------------------------------------2---------------|
G |-0-----0-----------0-----s--0--------0-0-----0---------0-----0------|
A#|--------------------------------------------------------------------|

C |-----------------------------------------------|
F |----------2--------------2--------------2------|
E |------0-----0--------0-----0--------0-----0----|
C |----0--------0-----0--------0-----0--------0---|
G |-----------------------------------------------|
A#|--7-----7------7-7-----7------7-7-----7------7-|

C |-------------------------------------------------------------|
F |-------------------------------------------------------------|
E |----1---1-1--------1---1-1--------1---1-1--------1---1-1-----|
C |---2----2-2-2-----2----2-2-2-----2----2-2-2-----2----2-2-2---|
G |-0----0-------0-0----0-------0-0----0-------0-0----0-------0-|
A#|-------------------------------------------------------------|

C |----------------------------------------------------------|
F |----------2--------------2--------------2----s2------2----|brb
E |------0-----0--------0-----0--------0-----0--s0-----------|
C |----0--------0-----0--------0-----0----------s0-----------|
G |---------------------------------------------------0------|
A#|--7-----7------7-7-----7------7-7-----7-------------------|

[Main Part 2](strums + picking)
C |----------------------------s0-----------------------------------------|mostly silent slaps
F |------------2--4-s4------2--s2-----------------2--------4-------2---s2-|
E |----1-------1--1-s1----0----s0---1-1-s-----------0-s------0-s-----0-s0-|
C |s-----2--s--2--2-s2-2-----------------------------------------------s0-|
G |-------------------------------0---------------------------------------|
A#|---------------------------------------7-7-s-7--------7-------7--------|

C |------------------------s0-------------------------------------s0-----------|
F |--------2--4-s4------2--s2-------s2------------2--4-s4------2--s2-------s2--|
E |1-------1--1-s1----0----s0---1---s1----1-------1--1-s1----0----s0---1---s1--|
C |--2--s--2--2-s2-2--------------2---------2--s--2--2-s2-2--------------2-----|
G |---------------------------0---------0----------------------------0---------|
A#|----------------------------------------------------------------------------|

C |----------------------------------|
F |-------2--------4-------2---------|s2
E |---------0-s------0-s-----0-------|s0
C |----------------------------------|s0
G |----------------------------------|
A#|7-7-s-7--------7-------7----------|

C |----------------------------s0----------------------------------lt1-----------|
F |--0---------2--4-s4------2--s2-------s2------------2--4-s4--------2-----2-----|
E |--1---------1--1-s1----0----s0---1---s1----1-------1--1-s1--------1-----1---s-|
C |----2----s--2--2-s2-2--------------2---------2--s--2--2-s2--------------------|
G |0------------------------------0---------0------------------------------------|
A#|------------------------------------------------------------------------------|

C |-------------------------------------|
F |-------2--------4-------2h4-p2p0hs2--|
E |---------0-s------0-s------------s0--|
C |---------------------------------s0--|
G |-------------------------------------|
A#|0-7-s-7--------7-------7-------------|

C |----------------------------s0----------------------------------lt1-----------|
F |--0---------2--4-s4------2--s2-------s2------------2--4-s4--------2-----2-----|
E |--1---------1--1-s1----0----s0---1---s1----1-------1--1-s1--------1-----1---s-|
C |----2----s--2--2-s2-2--------------2---------2--s--2--2-s2--------------------|
G |0------------------------------0---------0------------------------------------|
A#|------------------------------------------------------------------------------|

C |----------------------------------------|
F |-------2--------4-------2------4--------|
E |---------0-s------0-s-----0-s----0-s----|
C |----------------------------------------|
G |----------------------------------------|
A#|0-7-s-7--------7-------7------7---------|

C |-----------------------------------------------------------------|
F |-4---------4-------4p2p0h2-------4-------4p2-------2------2--s0--|
E |---0-s-----0-s-----0-----s-------0-s-----0---s-----0-s-----0-s0--|
C |-------------------------------------------------------------s0--|
G |-----------------------------------------------------------------|
A#7-------7-7-------7-----------7-7-------7-------7-7------7--------|      m mute string

[Connector 2]
C |---------------m--------------------------------m------------------------------m-------------------------|
F |----0----------m------------0-------------------m-----------0------------------m-----------0-------------|
E |-----0-------0-s0-----0-s----0---------------0--s0----0------0--------------0--s0----0-s----0------------|
C |------0-----0--s0----0---------s0-----0-----0---s0---0---------s-----0-----0---s0---0---------s0---------|
G |---------------------------------------------------------------------------------------------------------|
A#|0-2-----s-4--------0------0-------0-2---s-4--------0----s-0------0-2---s-4--------0------0--------0-0--s-|

[Main Part 3]
C |----------------------------------------------------------------|
F |----------m----------------m---------2----2------4------2-------|
E |----------m----------------m---------0----0------0------0-------|
C |-2h4p2p0m-m-------2h4p2p0m-m---------0-----0------0------0------|
G |----------m----------------m------------------------------------|
A#|0---------m-0-s-0----------m-0-s-0-7--s-7----s-7----s-7----s-7--|

C |----------------------------------------------------------------------------|
F |----------m-----------------------m--------------2----2------4------4-------|
E |----------m-----------------------m--------------0----0------0------0-------|
C |----2h4p2-m--------------2h4p2p0m-m--------------0-----0-----0------0-------|
G |----------m---7h10----------------m---7h10----------------------------------|
A#|--0-------m-0------s-0-0----------m-0------s-0-7--s-7----s-7----s-7----s-7--|

C |---------------------------------------------------------------------------|
F |---------m----------------------m--------------2----2------4--s2---4--s2---|
E |---------m----------------------m--------------0----0------0--s0---0--s0---|
C |---2h4p2-m-------------2h4p2p0m-m--------------0-----0-----0--s0---0--s0---|
G |---------m---7h10---------------m---7h10-----------------------------------|
A#|-0-------m-0-----s-0-0----------m-0------s-0-7--s-7----s-7-------7------7--|

C |-----------------------------------------------------0-----------------------|
F |------------------------------------------------2----2------4-s4-----2-s2----|
E |------------------------------------------------0-----0-----0-s0-----0-s0----|
C |----2h4p0-0---------------2h4p0-0---------------0-----0-----0-s0-----0-s0----|
G |---------------7h10p7----------------7h10------------------------------------|
A#|--0----------0------s-0-0----------0------s-0-7--s-7----s-7-------7-------7--|

C |----------------------------------------------------0---------------------|
F |-----------------------------------------------2----2------4-------2------|
E |-----------------------------------------------0-----0-----0-------0------|
C |---2h4p0-0---------------2h4p0-0---------------0-----------0--s----0--s---|
G |--------------7h10p7----------------7h10----------------------------------|
A#|-0----------0------s-0-0----------0------s-0-7--s-7----s-7------7-------7-|

C |---------------------------------------------------0-----------------------|
F |----------------------------------------------2----2------4p2-----4p2------|
E |----------------------------------------------0-----0-----0-------0--------|
C |--2h4p0-0---------------2h4p0-0---------------0-----0-----0--s----0--s-----|
G |-------------7h10p7----------------7h10------------------------------------|
A#|0----------0------s-0-0----------0------s-0-7--s-7----s-7------7-------7---|

C |---------------------------------------------------0------------------------|
F |----------------------------------------------2----2------4p2-----4p2-------|
E |----------------------------------------------0-----0-----0-------0---------|
C |--2h4p0-0---------------2h4p0-0---------------0-----0-----0--s----0--s------|
G |-------------7h10p7----------------7h10-------------------------------------|
A#|0----------0------s-0-0----------0------s-0-7--s-7----s-7------7-------7----|

C |----------------------------------------------------0----------------------|
F |-----------------------------------------------2----2------4p2-----4p2-----|
E |-----------------------------------------------0-----0-----0-------0-------|
C |--2h4p0-0----------------2h4p0-0---------------0-----0-----0--s----0--s----|
G |-------------7h10p7---!-------------7h10-----------------------------------|
A#|0----------0------s-0--0----------0------s-0-7--s-7----s-7------7-------7--|

C |-----------------------------------------------------------------------------------|
F |---------------------------------------------------------------------------------2-|
E |--------------------------------------------------------------------------------0--|
C |--2h4p0-0---------------2h4p0-0-----------------0-----0--------------2---------0---|
G |-------------7h10p7----------------7h10---------------------5/7-------7------------|
A#|0----------0------s-0-0----------0------s-0-0-----s-0---s-0-----s-0------s-0-7-----|

************************************

| b  Bend
| h  Hammer-on
| p  Pull-off
| \  Slide down
| /  Slide up

************************************

            
            
Suggest correction
Creating personal tab
Creating personal tab
You can edit any tab online and save it as your Personal.

You can edit, replace or remove any tab part or add personal notes – all changes will be seen only by you.

Personal tabs can be accessed anytime from any device, even offline.
Learn more »
Give kudos to tab author, rate the tab!
1 2 3 4 5
comments
print report bad tab
guest
You may want to rate the tab now too:
select rating
Wanna post a correction for this tab? Suggest correction