Oops, an error
Loading. Please wait.

Three Tree Town Tab

version 3
version 3

Whole song

1,706 views 1 this week
no commentswrite comment
1 2 3 4 5
please rate
add to favorites
launch autoscroll
font size
0
reset
how to read this tab
guitar tuner
Autoscroll
slow
fast
+/-
esc
set tempo
stop
Help us to improve Ultimate-Guitar.com Take our survey!
×
Author
Difficulty
Capo
novice
1st fret
-------------------------------------------------------------------------------
                             Ben Howard - Three Tree Town
-------------------------------------------------------------------------------
Tabbed by: Donny Brandeburg
Email: donbrandeburg@gmail.com

Tuning: Standard Tuning - Capo 1st Fret - All Positions Relative to the Capo

This is about as easy (least stretches) as I could figure out how to play it.
The number of measures he does each of the particular 'base' notes varies a bit - but 
this should help get you where you're going.

Enjoy!

Intro / Verse
e|---------------------------------------------------------------------------|
B|---------------------------------------------------------------------------|
G|----9----9---9-----9----9---9-----9----9---9-----9----9---9-----9----9---9-|
D|----9----9---9-----9----9---9-----9----9---9-----9----9---9-----9----9---9-|
A|------------------------------6------6---6---6-------6---6-----------------|
E|9------9---9---9------9---9-----------------------------------0----0---0---|

e|---------------------------------------------------------------------------|
B|--------------------------12-----12----------12------12----------12-----12-|
G|----9----9---9-----9----9------9------9----9-------9------9----9------9----|
D|----9----9---9-----9-------------------------------------------------------|
A|---------------------------------------------------------------------------|
E|--0----0---0---0------9------9------9---11------11-----11----0------0------|

e|---------------------------------------------------------------------------|
B|---------12-----12---------------------------------------------------------|
G|--9----9------9------9-----------------------------------------------------|
D|--------------------------Back to Verse------------------------------------|
A|---------------------------------------------------------------------------|
E|0----0------0------0-------------------------------------------------------|

As the song progresses he will start to do a down 'stroke' with the top of his 
fingernail (index and middle). Gotta listen a bit to get the pattern.


************************************

| /   slide up
| \   slide down
| h   hammer-on
| p   pull-off
| ~   vibrato
| +   harmonic
| x   Mute note
| b   Bend
| pb  Pre-bend
| br  Bend release
| pbr Pre-bend release
| brb Bend release bend

************************************---
Suggest correction
What's this?
You can suggest a correction to this tab. Community and Mods will review your correction and vote to approve or reject it.
comments
We did not receive enough feedback on this tab! Please rate:
print report bad tab
1 2 3 4 5
guest
You may want to rate the tab now too:
select rating
Please do not post tabs as comments. Select "correction" instead!