Oops, an error
Loading. Please wait.

Worlds Collide Acoustic chords

284 views 1 this week
no commentswrite comment
1 2 3 4 5
3 more votes to show rating
add to favorites
×
Save as Personal and add changes to this tab that will be seen only by you. Learn more ›
×
You can save this tab as Personal to edit and correct it or add notes. All changes will be seen only by you. Learn more »
launch autoscroll
font size
0
reset
transpose
0
reset
display chords
guitar tuner
edit
Autoscroll
slow
fast
+/-
esc
set tempo
stop
Strumming Is this strumming pattern correct? Yes No
Verse, Pre-Chorus, & Chorus 120 bpm
1
&
2
&
3
&
4
&
Listen
Tabbed by: Giovanni Vidana
Email: giovidana222@gmail.com

This song is very open to creativity. The various versions he has created all vary.
Once you have the basic structure down, you can feel free to throw in your own style!

Tunning: Standard
Capo: None


Please rate! This is my first tab!



VERSE and PRECHORUS
The way he plays these chords involves the 6th, 5th, and 3rd strings.


    G                                   D                    A
E|--------------------------------------------------------------------------------|
B|--------------------------------------------------------------------------------|
G|--4-----4--4--------4-----4--4--------11-----11--11--------6-----6--6--6--6--6--|
D|--------------------------------------------------------------------------------|
A|--2-----2--2--------2-----2--2--------9------9---9---------4-----4--4--4--4--4--|
E|--3-----3--3--------3-----3--3--------10-----10--10--------5-----5--5--5--5--5--|
 
With this played the second time,

    G                                   D                    A
E|--------------------------------------------------------------------------------|
B|--------------------------------------------------------------------------------|
G|--4-----4--4--------4-----4--4--------11-----11--11--------6-----6--6--7--7--6--|
D|--------------------------------------------------------------------------------|
A|--2-----2--2--------2-----2--2--------9------9---9---------4-----4--4--4--4--4--|
E|--3-----3--3--------3-----3--3--------10-----10--10--------5-----5--5--5--5--5--|


[CHORUS]

   "I-       Can't   E-        -ven       Lieee-..."
    G        Bm      D          F#m       G
E|---------------------------------------------------------------------------------------|
B|---------------------------------------------------------------------------------------|
G|--4--------7--------11--------14--------4-----4--4--4--4--4--------4-----4--4--4--4--4-|
D|---------------------------------------------------------------------------------------|
A|--2--------5--------9---------12--------2-----2--2--2--2--2--------2-----2--2--2--2--2-|
E|--3--------7--------10--------14--------3-----3--3--3--3--3--------3-----3--3--3--3--3-|

 "I Love     It       When     Our       Worlds      Collide."
    G        Bm       D        F#m       E           D    
E|---------------------------------------------------------------------------------|
B|---------------------------------------------------------------------------------|
G|--4--------6--------7--------14--------9--9--9--9--7--7--7--7--7--7--7--7--7--7--|
D|---------------------------------------------------------------------------------|
A|--2--------4--------5--------12--------7--7--7--7--5--5--5--5--5--5--5--5--5--5--|
E|--3--------5--------7--------14--------9--9--9--9--7--7--7--7--7--7--7--7--7--7--|

AFTER 1ST CHORUS

E|------10----------10----------10------10----------10----------10--|
B|----------10----------10------------------10----------10----------|
G|--12----------12----------12------12----------12----------12------|
D|------------------------------------------------------------------|
A|------------------------------------------------------------------|
E|------------------------------------------------------------------|

E|------10----------10----------10-----9---------9---------9--|
B|----------10----------10----------------10--------10--------|
G|--11----------11----------11------9---------9---------9-----|
D|------------------------------------------------------------|
A|------------------------------------------------------------|
E|------------------------------------------------------------|

E|------10----------10----------10------10----------10----------10--|
B|----------10----------10------------------10----------10----------|
G|--12----------12----------12------12----------12----------12------|
D|------------------------------------------------------------------|
A|------------------------------------------------------------------|
E|------------------------------------------------------------------|


E|------10----------10----------10--9---9---9---9---9---9---|
B|----------10----------10----------10--10--10--10--10--10--|
G|--11----------11----------11------9---9---9---9---9---9---|
D|----------------------------------------------------------|
A|----------------------------------------------------------|
E|----------------------------------------------------------|



VERSE and PRECHORUS


[CHORUS]
G G D A

AFTER SECOND CHORUS


    G                                         D                    A
E|--3--------3-----3--3--3--3--------------|--2--------2-----2--2--0--0--0--0--0--|
B|--3--------3-----3--3--3--3--------------|--3--------3-----3--3--2--2--3--3--3--|
G|--0--------0-----0--0--0--0-----------0--|--2--------2-----2--2--2--2--2--2--2--|
D|--0--------0-----0--0--0--0--0--2--4-----|--0--------0-----0--0--2--2--2--2--2--|
A|--2--------2-----2--2--2--2--------------|-----------------------0--0--0--0--0--|
E|--3--------3-----3--3--3--3--------------|--------------------------------------|


    G                                         D                    A
E|--3--------3-----3--3--3--3--------------|--2--------2-----2--5--0--0--0--0--0--|
B|--3--------3-----3--3--3--3--------------|--3--------3-----3--3--2--2--3--3--3--|
G|--0--------0-----0--0--0--0-----------0--|--2--------2-----2--2--2--2--2--2--2--|
D|--0--------0-----0--0--0--0--0--2--4-----|--0--------0-----0--0--2--2--2--2--2--|
A|--2--------2-----2--2--2--2--------------|-----------------------0--0--0--0--0--|
E|--3--------3-----3--3--3--3--------------|--------------------------------------|

PLAY ORIGINAL VERSE CHORDS FOR OUTRO, OR FEEL FREE TO END WITH ANYTHING YOU WANT!

            
            
Suggest correction
Creating personal tab
Creating personal tab
You can edit any tab online and save it as your Personal.

You can edit, replace or remove any tab part or add personal notes – all changes will be seen only by you.

Personal tabs can be accessed anytime from any device, even offline.
Learn more »
Give kudos to tab author, rate the tab!
1 2 3 4 5
comments
print report bad tab
guest
You may want to rate the tab now too:
select rating
Wanna post a correction for this tab? Suggest correction