Oops, an error
Loading. Please wait.

Commerce Tx Tab

3,128 views 1 this week
no commentswrite comment
1 2 3 4 5
2 more votes to show rating
add to favorites
launch autoscroll
font size
0
reset
how to read this tab
guitar tuner
Autoscroll
slow
fast
+/-
esc
set tempo
stop
Help us to improve Ultimate-Guitar.com Take our survey!
×
Author
Difficulty
This is a really fun song that i like a lot, 
so i decided to do a tab version  with the 
help from areyoumymother. It's not perfect 
but close enough for me... Enjoy! -welaughindoors

Commerce, TX - Ben Kweller

Intro/ Verse

e-----------------------------------------------|
B-----------------------------------------------|
G-----0-0-00-0--0-0-0--0-0--00-00-0-00-00-------|
D-----5-5-55/10-101010-1010\77-77-5/77/99-------|
A-----5-5-55/10-101010-1010\77-77-5/77/99-------|
E-----3-3-33/8--8-8-8--8-8-\55-55-3/55/77-------|
        I've  got  a  bad  flavor..

Ben doesn't hit the open g string every strum, but 
it's easy to figure out when you listen to it.

end of the verse
e---------(0)----------------------------|
B---------(0)----------------------------|
G---------(0)----------------------------|
D----------2-2---------------77777-------|
A----------2-2---------------77777-------|
E----------0-0---------------55555-------|

... and  a   baby on the way, but it's ok

i didn't tab the strumming, but you get the idea

chorus

e-------------------------------|
B-------------------------------|
G-------------------------------|
D----101010-999-777-555---------|
A----101010-999-777-555---------|
E----8-8-8--777-555-333---------|


end of the chorus

  e---------------------------------------------------------------|
  B----------------8-8-7------------------------------------------|
  G----------------7-7-7------------------------------------------|
  D-101010-999-77----------101010101010101010101010-9999-7777-5555|
  A-101010-999-77----------101010101010101010101010-9999-7777-5555|
  E-8-8-8--777-55----------8-8-8-8-8-8-8-8-8-8-8-8--7777-5555-3333|
...take the fall        i really want to make that caaaaaalllllll

Bridge

e---3-3-3-3-3-3-3-3----------------------------------|
B---3-3-3-3-5-5-5-5----------------------------------|
G---4-4-4-4-5-5-5-5----------------------------------|
D---5-5-5-5-5-5-5-5--------------77-5-77-5-77-5-77---|
A---5-5-5-5-3-3-3-3--------------77-5-77-5-77-5-77---|
E---3-3-3-3----------------------55-3-55-3-55-3-55---|
   ...my brian is super fried  

That's it for now! If something else dawn's on me i'll post it up. :)
Suggest correction
Give kudos to tab author, rate the tab!
1 2 3 4 5
comments
print report bad tab
guest
You may want to rate the tab now too:
select rating
Wanna post a correction for this tab? Suggest correction