Oops, an error
Loading. Please wait.

I Need You Back Tab

version 1
version 1

Whole song

Interactive

2,425 views 1 this week
no commentswrite comment
1 2 3 4 5
2 more votes to show rating
add to favorites
launch autoscroll
font size
0
reset
how to read this tab
guitar tuner
Autoscroll
slow
fast
+/-
esc
set tempo
stop
Help us to improve Ultimate-Guitar.com Take our survey!
×
Difficulty
intermediate
Artist: Ben Kweller
Song: I Need You Back
Album: On My Way

Capo: I

2 Guitars Arranged for 1

Intro:
e-------------------------------------------|
B-------------------------------------------|
G------0h1-----2-0--------------------------|
D----2-----2-------2-0----------------------|
A------------4------------------------------|
E--0----------------------------------------|

verse: same as intro

Take me back when you think that it's good
It feels worse than they said it would
You're gone but not forever

When i know that i'm never wanted
I tuck away in my turtle shell
I've standed on this hex forever


Chorus:

e-----------10-------10------------------|
B-----11-------11------------------------|
G--------10-------10---------------------|
D----------------------------------------|
A--13------------------------------------|
E----------------------------------------|
         I Need You

e----------4-----4-----------------------|
B-----5------5---------------------------|
G--------4-----4-------------------------|
D----------------------------------------|
A---7------------------------------------|
E----------------------------------------|
         Back

e-----------12------12-------------------|
B-----13-------13------------------------|
G--------12-------12---------------------|
D----------------------------------------|
A--15------------------------------------|
E----------------------------------------|
         I need you

e----------4-----4-----------------------|
B-----5------5---------------------------|
G--------4-----4-------------------------|
D----------------------------------------|
A---7------------------------------------|
E----------------------------------------|
         here


e-----------10-------10------------------|
B-----11-------11------------------------|
G--------10-------10---------------------|
D----------------------------------------|
A--13------------------------------------|
E----------------------------------------|
         To take away

e----------4-----4-----------------------|
B-----5------5---------------------------|
G--------4-----4-------------------------|
D----------------------------------------|
A---7------------------------------------|
E----------------------------------------|
          all of my pain


Ab           A
And then my fear


E  B                C#m   A
Hey, hey i need you ba-aa-aa-ck
E  B                C#m   A
Hey, hey i need you ba-aa-aa-ck


Intro/Verse:

like a ghost on it's darkest visit
you got my soul now baby why is it
gone gone gone? take it from me

you are free if you can sleep at night
you really must be hard if you're feeling alright
hey hey hey we're way uptown we've gotta turn around


Its basically the same after that
Suggest correction
Give kudos to tab author, rate the tab!
1 2 3 4 5
comments
print report bad tab
guest
You may want to rate the tab now too:
select rating
Wanna post a correction for this tab? Suggest correction