Oops, an error
Loading. Please wait.

Penny On The Train Track Tab

8,951 views 6 this week
no commentswrite comment
1 2 3 4 5
excellent!
x 3
add to favorites
launch autoscroll
font size
0
reset
how to read this tab
guitar tuner
Tab Pro tools
  • play this tab
  • loop segment
  • change instrument
  • show fretboard
  • metronome
×
Best way to learn
"Penny On The Train Track"
Autoscroll
slow
fast
+/-
esc
set tempo
stop
Contributor
Difficulty
intermediate
tabbed by me! jordan ballou!

----------------------------------------------------------------------------|
-------------------Penny on the Train track by Ben Kweller------------------|
----------------------------------------------------------------------------|
okay soo this first part is on bass but it sounds good on the low E string of the guitar

intro

E---5/10--10-10-10--5-5-5-5-5-5-5

then just play
D-A-G


verse 1 (palm mute the whole thing)

im just a penny on the
e-0-0-0-0-0-0-0-0-------------|
b-7-7-7-7-7-7-7-7-------------|
g-7-7-7-7-7-7-7-7-------------|
d-7-7-7-7-7-7-7-7-------------|
a-5-5-5-5-5-5-5-5-------------|
E-0-0-0-0-0-0-0-0-------------|

train track
e-5-5-5-5-5-5-5-5-------------|
b-5-5-5-5-5-5-5-5-------------|
g-6-6-6-6-6-6-6-6-------------|
d-7-7-7-7-7-7-7-7-------------|
a-7-7-7-7-7-7-7-7-------------|
E-5-5-5-5-5-5-5-5-------------|

waitin' for my judgement
e-3-3-3-3-3-3-3-3-------------|
b-3-3-3-3-3-3-3-3-------------|
g-4-4-4-4-4-4-4-4-------------|
d-5-5-5-5-5-5-5-5-------------|
a-5-5-5-5-5-5-5-5-------------|
E-3-3-3-3-3-3-3-3-------------|

day, come on baby girl let me
e-0-0-0-0-0-0-0-0-------------|
b-7-7-7-7-7-7-7-7-------------|
g-7-7-7-7-7-7-7-7-------------|
d-7-7-7-7-7-7-7-7-------------|
a-5-5-5-5-5-5-5-5-------------|
E-0-0-0-0-0-0-0-0-------------|

see those legs, be-
e-5-5-5-5-5-5-5-5-------------|
b-5-5-5-5-5-5-5-5-------------|
g-6-6-6-6-6-6-6-6-------------|
d-7-7-7-7-7-7-7-7-------------|
a-7-7-7-7-7-7-7-7-------------|
E-5-5-5-5-5-5-5-5-------------|

-fore i get flattened
e-3-3-3-3-3-3-3-3-------------|
b-3-3-3-3-3-3-3-3-------------|
g-4-4-4-4-4-4-4-4-------------|
d-5-5-5-5-5-5-5-5-------------|
a-5-5-5-5-5-5-5-5-------------|
E-3-3-3-3-3-3-3-3-------------|

away
e-0-0-0-0-0-0-0-0-------------|
b-7-7-7-7-7-7-7-7-------------|
g-7-7-7-7-7-7-7-7-------------|
d-7-7-7-7-7-7-7-7-------------|
a-5-5-5-5-5-5-5-5-------------|
E-0-0-0-0-0-0-0-0-------------|

chorus

i wait
e-2-2-2-2-2-3-2-2-------------|
b-3-3-3-3-3-3-3-3-------------|
g-2-2-2-2-2-2-2-2-------------|
d-0-0-0-0-0-0-0-0-------------|
a-x-x-x-x-x-x-x-x-------------|
E-x-x-x-x-x-x-x-x-------------|

yeah i wait
e-0-0-0-0-0-2-0-0-------------|
b-2-2-2-2-2-2-2-2-------------|
g-2-2-2-2-2-2-2-2-------------|
d-2-2-2-2-2-2-2-2-------------|
a-0-0-0-0-0-0-0-0-------------|
E-0-0-0-0-0-0-0-0-------------|

for something good for something
e-3-3-3-3-3-3-3---------------|
b-3-3-3-3-3-3-3---------------|
g-0-0-0-0-0-0-0---------------|
d-0-0-0-0-0-0-0---------------|
a-2-2-2-2-2-2-2---------------|
E-3-3-3-3-3-3-3---------------|

great
e-2-2-2-2-2-3-2-2-------------|
b-3-3-3-3-3-3-3-3-------------|
g-2-2-2-2-2-2-2-2-------------|
d-0-0-0-0-0-0-0-0-------------|
a-x-x-x-x-x-x-x-x-------------|
E-x-x-x-x-x-x-x-x-------------|

all other verses and choruses are the same

bridge

uh!
e-2-2-2-2-2-0-0-----|
b-3-3-3-3-3-2-2-----|
g-2-2-2-2-2-2-2-----|
d-0-0-0-0-0-2-2-----|
a-x-x-x-x-x-0-0-----|
E-x-x-x-x-x-0-0-----|

whoa, whoa-oh-oh-oh-ohhh
e-3-3-3-3-2-2-2-2-2--------------|
b-3-3-3-3-3-3-3-3-3--------------|
g-0-0-0-0-2-2-2-2-2--------------|
d-0-0-0-0-0-0-0-0-0--------------|
a-2-2-2-2-x-x-x-x-x--------------|
E-3-3-3-3-x-x-x-x-x--------------|

e-2-2-2-2-2-0-0-----|
b-3-3-3-3-3-2-2-----|
g-2-2-2-2-2-2-2-----|
d-0-0-0-0-0-2-2-----|
a-x-x-x-x-x-0-0-----|
E-x-x-x-x-x-0-0-----|

why-e-i-e-i-e-i-e-i

e-3-3-3-3-2-2-2-2-2--------------|
b-3-3-3-3-3-3-3-3-3--------------|
g-0-0-0-0-2-2-2-2-2--------------|
d-0-0-0-0-0-0-0-0-0--------------|
a-2-2-2-2-x-x-x-x-x--------------|
E-3-3-3-3-x-x-x-x-x--------------|

now at this part you can continue playing those chords or play the bass part which 
awesome

e---------------------------|
b---------------------------|
g---------------------------|
d---------------------------|
a-5-0-2-5-0-2-5-0-4-0-2-4---|
E---------------------------|

ooooo

e---------------------------|
b---------------------------|
g---------------------------|
d---------------------------|
a-----------------5-0-2-5---|
E-7-3-5-7-3-5-7-3-----------|

oh baby dance with me

e---------------------------|
b---------------------------|
g---------------------------|
d---------------------------|
a-5-0-2-5-0-2-5-0-4-0-2-4---|
E---------------------------|

whoa

e---------------------------|
b---------------------------|
g---------------------------|
d---------------------------|
a-----------------2-0-2-5---|
E-7-3-5-7-3-5-7-3-----------|

then goes the rest of it all =D good luck folks
ben kweller is the bessssssst
comments
We did not receive enough feedback on this tab! Please rate:
print report bad tab
1 2 3 4 5
I want to post or [tab]
guest
You may want to rate the tab now too:
select rating
Please do not post tabs as comments. Select "correction" instead!