Oops, an error
Loading. Please wait.

Wasted And Ready Bass Tab

version 1
version 1

Whole song

Interactive

679 views 3 this week
no commentswrite comment
1 2 3 4 5
2 more votes to show rating
add to favorites
launch autoscroll
font size
0
reset
guitar tuner
Autoscroll
slow
fast
+/-
esc
set tempo
stop
Help us to improve Ultimate-Guitar.com Take our survey!
×
Author
Difficulty
novice
Artist:Ben Kweller
Album: Sha Sha
Song : Wasted & Ready
Tabbed By Rob Price

Really Cool easy song to play. Feel free to comment
Stereopricey@hotmail.com

Guitar Intro

G---------R----------|
D---------E----------|
A---------S----------|
E---------T----------|

Chorus
     (x1)           (x4)
G------------|-------------------|
D------------|-------------------|
A------------|----------00002222-|
E-5-5-7-77-7-|-00-0-00-0---------|


G------------|
D------------|
A---22-00-22-|
E-00---------|

Guitar Only Part

G---------R----------|
D---------E----------|
A---------S----------|
E---------T----------|

Chorus
     (x1)           (x4)
G------------|-------------------|
D------------|-------------------|
A------------|----------00002222-|
E-5-5-7-77-7-|-00-0-00-0---------|

    (x2)
G------------|
D------------|
A---22-00-22-|
E-00---------|


Bridge (running as fast as i can)

G---------------------------------------------------|
D---------------------------------------------------|
A---------------------------------------------------|
E-3-3-3-5-5-5-0-0-0-0-0-0-0-0-0-0-7-7-7-3-3-3-5-5-5-|

Solo (x4)
G---------------------------|
D---------------------------|
A---------------------------|
E-00-0-00-0-5-3-5-3-6-6-5-3-|

G---------R----------|
D---------E----------|
A---------S----------|
E---------T----------|

Final Chorus
     (x1)           (x8)
G------------|-------------------|
D------------|-------------------|
A------------|----------00002222-|
E-5-5-7-77-7-|-00-0-00-0---------|

   (x3)
G------------|
D------------|
A---22-00-22-|
E-00---------|

G--------------------|
D--------------------|
A-----2222-0000-2222-|
E-0000---------------|

Outro (running as fast as i can)
(x3)
G---------------------------------------------------|
D---------------------------------------------------|
A---------------------------------------------------|
E-3-3-3-5-5-5-0-0-0-0-0-0-0-0-0-0-7-7-7-3-3-3-5-5-5-|

G------|
D------|
A------|
E-7-00-|
Suggest correction
Give kudos to tab author, rate the tab!
1 2 3 4 5
comments
print report bad tab
guest
You may want to rate the tab now too:
select rating
Wanna post a correction for this tab? Suggest correction