Oops, an error
Loading. Please wait.

Wasted And Ready Tab

version 1
version 1

Whole song

Interactive

18,379 views 1 this week
6 commentsread comments
1 2 3 4 5
x 10
add to favorites
launch autoscroll
font size
0
reset
how to read this tab
guitar tuner
Autoscroll
slow
fast
+/-
esc
set tempo
stop
Help us to improve Ultimate-Guitar.com Take our survey!
×
Intro
e-------------------------------------------------------
B-------------------------------------------------------
G-------------------------------------------------------  x4
D--9--9--9--9---9--9--9--9---9--9--9- 9---9--9--9- 9----
A--7--7--7--7---6--6--6--6---6--6- 6--6---7--7--7--7----
E--0--0--0--0---0--0--0--0---5--5--5--5---5--5--5--5----

verse 1
e--------------------------------------------------------
B--------------------------------------------------------
G--------------------------------------------------------
D--9--9--9--9---9--9--9--9---9--9--9- 9---9--9--9- 9-----
A--7--7--7--7---6--6--6--6---6--6- 6--6---7--7--7--7-----
E--0--0--0--0---0--0--0--0---5--5--5--5---5--5--5--5-----
  "force field   super shield    A  A"

e--------------------------------------------------------
B--------------------------------------------------------
G--------------------------------------------------------
D--9--9--9--9---9--9--9--9---9--9--9- 9---9--9--9- 9-----
A--7--7--7--7---6--6--6--6---6--6- 6--6---7--7--7--7-----
E--0--0--0--0---0--0--0--0---5--5--5--5---5--5--5--5-----
  "junior high love affair is   O    K"

e--------------------------------------------------------
B--------------------------------------------------------
G--------------------------------------------------------
D--9--9--9--9---9--9--9--9---9--9--9- 9---9--9--9- 9-----
A--7--7--7--7---6--6--6--6---6--6- 6--6---7--7--7--7-----
E--0--0--0--0---0--0--0--0---5--5--5--5---5--5--5--5-----
  "Jump on the big wagon cus i'm  so  cal"

e-------------------------------------------------------------------------------
B-------------------------------------------------------------------------------
G-------------------------------------------------------------------------------
D-4-4-4-4----7-7-7-7----9-9-9-9-9-9-9-9----4----------------------7-7-----9-99-9
A-4-4-4-4----7-7-7-7----9-9-9-9-9-9-9-9----4-let ring-------------7-7-----9-99-9
E-2-2-2-2----5-5-5-5----7-7-7-7-7-7-7-7----2----------------------5-5-----7-77-7
 "I'm    big  in every way             I'm runnin' as fast as i can"

Chorus
e--------------------------------------------------------
B--------------------------------------------------------
G---------------4--4--4--4-------------------------------
D--2--2--x--2---4--4--4--4---7--7--7--7---9--9--9--9-----
A--2--2--x--2---2--2--2--2---7--7--7--7---9--9--9--9-----
E--0--0--x--0----------------5--5--5--5---7--7--7--7-----
  "she goes above and beyond her call of duty"

e--------------------------------------------------------
B--------------------------------------------------------
G---------------4--4--4--4-------------------------------
D--2--2--x--2---4--4--4--4---7--7--7--7---9--9--9--9-----
A--2--2--x--2---2--2--2--2---7--7--7--7---9--9--9--9-----
E--0--0--x--0----------------5--5--5--5---7--7--7--7-----
  "She is a slut but X thinks it sexy"

e--------------------------------------------------------
B--------------------------------------------------------
G---------------4--4--4--4-------------------------------
D--2--2--x--2---4--4--4--4---7--7--7--7---9--9--9--9-----
A--2--2--x--2---2--2--2--2---7--7--7--7---9--9--9--9-----
E--0--0--x--0----------------5--5--5--5---7--7--7--7-----
  "Sex reminds her of eating spaghetti"

e--------------------------------------------------------
B--------------------------------------------------------
G---------------4--4--4--4-------------------------------
D--2--2--x--2---4--4--4--4---7--7--7--7---9--9--9--9-----
A--2--2--x--2---2--2--2--2---7--7--7--7---9--9--9--9-----
E--0--0--x--0----------------5--5--5--5---7--7--7--7-----
  "i am wasted but i'm ready"

interlude
e----------------------------------------------
B----------------------------------------------
G------------4--4--x---------------------------
D--2--2--x---4--4--x---7--7--x---9--9--x-------
A--2--2--x---2--2--x---7--7--x---9--9--x-------
E--0--0--x-------------5--5--x---7--7--x-------


Verse 2
e--------------------------------------------------------
B--------------------------------------------------------
G--------------------------------------------------------
D--9--9--9--9---9--9--9--9---9--9--9- 9---9--9--9- 9-----
A--7--7--7--7---6--6--6--6---6--6- 6--6---7--7--7--7-----
E--0--0--0--0---0--0--0--0---5--5--5--5---5--5--5--5-----
  "If you wanna move it so, why don't you make it go"

e--------------------------------------------------------
B--------------------------------------------------------
G--------------------------------------------------------
D--9--9--9--9---9--9--9--9---9--9--9- 9---9--9--9- 9-----
A--7--7--7--7---6--6--6--6---6--6- 6--6---7--7--7--7-----
E--0--0--0--0---0--0--0--0---5--5--5--5---5--5--5--5-----
  "Prove to everybody who doesn't understand"

e--------------------------------------------------------
B--------------------------------------------------------
G--------------------------------------------------------
D--9--9--9--9---9--9--9--9---9--9--9- 9---9--9--9- 9-----
A--7--7--7--7---6--6--6--6---6--6- 6--6---7--7--7--7-----
E--0--0--0--0---0--0--0--0---5--5--5--5---5--5--5--5-----
  "All the nights, all the fights. You are out of sight."

e-------------------------------------------------------------------------------
B-------------------------------------------------------------------------------
G-------------------------------------------------------------------------------
D-4-4-4-4----7-7-7-7----9-9-9-9-9-9-9-9----4----------------------7-7-----9-99-9
A-4-4-4-4----7-7-7-7----9-9-9-9-9-9-9-9----4-let ring-------------7-7-----9-99-9
E-2-2-2-2----5-5-5-5----7-7-7-7-7-7-7-7----2----------------------5-5-----7-77-7
 "Some say more with their hand           I'm runnin' as fast as i can"

Chorus
e--------------------------------------------------------
B--------------------------------------------------------
G---------------4--4--4--4-------------------------------
D--2--2--x--2---4--4--4--4---7--7--7--7---9--9--9--9-----
A--2--2--x--2---2--2--2--2---7--7--7--7---9--9--9--9-----
E--0--0--x--0----------------5--5--5--5---7--7--7--7-----
  "she goes above and beyond her call of duty"

e--------------------------------------------------------
B--------------------------------------------------------
G---------------4--4--4--4-------------------------------
D--2--2--x--2---4--4--4--4---7--7--7--7---9--9--9--9-----
A--2--2--x--2---2--2--2--2---7--7--7--7---9--9--9--9-----
E--0--0--x--0----------------5--5--5--5---7--7--7--7-----
  "She is a slut but X thinks it sexy"

e--------------------------------------------------------
B--------------------------------------------------------
G---------------4--4--4--4-------------------------------
D--2--2--x--2---4--4--4--4---7--7--7--7---9--9--9--9-----
A--2--2--x--2---2--2--2--2---7--7--7--7---9--9--9--9-----
E--0--0--x--0----------------5--5--5--5---7--7--7--7-----
  "Sex reminds her of eating spaghetti"

e--------------------------------------------------------
B--------------------------------------------------------
G---------------4--4--4--4-------------------------------
D--2--2--x--2---4--4--4--4---7--7--7--7---9--9--9--9-----
A--2--2--x--2---2--2--2--2---7--7--7--7---9--9--9--9-----
E--0--0--x--0----------------5--5--5--5---7--7--7--7-----
  "i am wasted but i'm ready"
e----------------------------------------------
B----------------------------------------------
G------------4--4--x---------------------------
D--2--2--x---4--4--x---7--7--x---9--9--x-------
A--2--2--x---2--2--x---7--7--x---9--9--x-------
E--0--0--x-------------5--5--x---7--7--x-------
  "i am wasted but i'm ready"

e----------------------------------------------
B----------------------------------------------
G------------4--4--x---------------------------
D--2--2--x---4--4--x---7--7--x---9--9--x-------
A--2--2--x---2--2--x---7--7--x---9--9--x-------
E--0--0--x-------------5--5--x---7--7--x-------
  "i am wasted but i'm ready"

-----{{{{{[[[[[version of "runnin as fast as i can"]]]]]}}}}}-----

        -----{{{{{[[[[[solo ish thing]]]]]}}}}}-----

e--------------------------------------------------------
B--------------------------------------------------------
G--------------------------------------------------------
D--9--9--9--9---9--9--9--9---9--9--9- 9---9--9--9- 9----- x2
A--7--7--7--7---6--6--6--6---6--6- 6--6---7--7--7--7-----
E--0--0--0--0---0--0--0--0---5--5--5--5---5--5--5--5-----

verse 1
e--------------------------------------------------------
B--------------------------------------------------------
G--------------------------------------------------------
D--9--9--9--9---9--9--9--9---9--9--9- 9---9--9--9- 9-----
A--7--7--7--7---6--6--6--6---6--6- 6--6---7--7--7--7-----
E--0--0--0--0---0--0--0--0---5--5--5--5---5--5--5--5-----
  "Why am I dealing with this feeling?"

e--------------------------------------------------------
B--------------------------------------------------------
G--------------------------------------------------------
D--9--9--9--9---9--9--9--9---9--9--9- 9---9--9--9- 9-----
A--7--7--7--7---6--6--6--6---6--6- 6--6---7--7--7--7-----
E--0--0--0--0---0--0--0--0---5--5--5--5---5--5--5--5-----
  "I'm maxed out like a credit card."

e--------------------------------------------------------
B--------------------------------------------------------
G--------------------------------------------------------
D--9--9--9--9---9--9--9--9---9--9--9- 9---9--9--9- 9-----
A--7--7--7--7---6--6--6--6---6--6- 6--6---7--7--7--7-----
E--0--0--0--0---0--0--0--0---5--5--5--5---5--5--5--5-----
  "I'll continue to be my worst enemy."

e----------------------------------------------------------------------------------------
B----------------------------------------------------------------------------------------
G----------------------------------------------------------------------------------------
D-4-4-4-4----7-7-7-7----9-9-9-9-9-9-9-9----4-------------------------------7-7-----9-99-9
A-4-4-4-4----7-7-7-7----9-9-9-9-9-9-9-9----4-let ring----------------------7-7-----9-99-9
E-2-2-2-2----5-5-5-5----7-7-7-7-7-7-7-7----2-------------------------------5-5-----7-77-7
 "It's easy but it seems so hard.        You're near but you seem so far."

Chorus
e--------------------------------------------------------
B--------------------------------------------------------
G---------------4--4--4--4-------------------------------
D--2--2--x--2---4--4--4--4---7--7--7--7---9--9--9--9-----
A--2--2--x--2---2--2--2--2---7--7--7--7---9--9--9--9-----
E--0--0--x--0----------------5--5--5--5---7--7--7--7-----
  "she goes above and beyond her call of duty"

e--------------------------------------------------------
B--------------------------------------------------------
G---------------4--4--4--4-------------------------------
D--2--2--x--2---4--4--4--4---7--7--7--7---9--9--9--9-----
A--2--2--x--2---2--2--2--2---7--7--7--7---9--9--9--9-----
E--0--0--x--0----------------5--5--5--5---7--7--7--7-----               x2
  "She is a slut but X thinks it sexy"

e--------------------------------------------------------
B--------------------------------------------------------
G---------------4--4--4--4-------------------------------
D--2--2--x--2---4--4--4--4---7--7--7--7---9--9--9--9-----
A--2--2--x--2---2--2--2--2---7--7--7--7---9--9--9--9-----
E--0--0--x--0----------------5--5--5--5---7--7--7--7-----
  "Sex reminds her of eating spaghetti"

e--------------------------------------------------------
B--------------------------------------------------------
G---------------4--4--4--4-------------------------------
D--2--2--x--2---4--4--4--4---7--7--7--7---9--9--9--9-----
A--2--2--x--2---2--2--2--2---7--7--7--7---9--9--9--9-----
E--0--0--x--0----------------5--5--5--5---7--7--7--7-----
  "i am wasted but i'm ready"



e----------------------------------------------
B----------------------------------------------
G------------4--4--x---------------------------
D--2--2--x---4--4--x---7--7--x---9--9--x-------  x4
A--2--2--x---2--2--x---7--7--x---9--9--x-------
E--0--0--x-------------5--5--x---7--7--x-------
  "i am wasted but i'm ready"

---{{{[[[drums w/ some guitar]]]}}}---
i .........yaaaaaaa ammmmmmmmm"


-----{{{{{[[[[[same weird version of "runnin as fast as i can"]]]]]}}}}}-----

by ScottMetts
Suggest correction
comments
print report bad tab
6 comments total. Showing first comments.
0 reply
lilskeeto 110 Feb 03, 2003 12:00 AM

... is there another way to play it without stretching ur fingers so far and awkwardly?

0 reply
crazyassmexican 10 Jun 04, 2005 12:00 AM

lilskeeto, i just skeed in your eye.

0 reply
anarocker 10 Oct 16, 2005 04:14 PM

The songs in 'D' tune ..... my guitar teacher(Jason aka Jar) is the lead guitarist for BK .....

guest
You may want to rate the tab now too:
select rating
Wanna post a correction for this tab? Suggest correction