Oops, an error
Loading. Please wait.

Wasted And Ready chords

version 2
version 2

Whole song

  • Complete with all the parts, the right chords, tempo, tab for intro ...

Interactive

31 views 1 this week
no commentswrite comment
1 2 3 4 5
3 more votes to show rating
add to favorites
×
Save as Personal and add changes to this tab that will be seen only by you. Learn more ›
×
You can save this tab as Personal to edit and correct it or add notes. All changes will be seen only by you. Learn more »
launch autoscroll
font size
0
reset
transpose
0
reset
simplify chords
display chords
guitar tuner
edit
Autoscroll
slow
fast
+/-
esc
set tempo
stop
About this tab version
Complete with all the parts, the right chords, tempo, tab for intro ... Was this info helpful? Yes No
Strumming
There is no strumming pattern for this song yet. and get +5 IQ
----------------------------------------------------------------------------------------------------
                                  Ben Kweller - Wasted And Ready
----------------------------------------------------------------------------------------------------

Album : Sha Sha (2002)
Tempo : 112
E-mail: gwendal.mollo@orange.fr
Tabbed by: newg    (http://profile.ultimate-guitar.com/newg/)

B/G# : x26xxx

[Intro]
    E5                         A5
e|--------------------------|--------------------------|
B|--------------------------|--------------------------|
G|--------------------------|--------------------------|
D|--------------------------|--------------------------|
A|--7--7--7--7--6--6--6--6--|--6--6- 6--6--7--7--7--7--|
E|--0--0--0--0--0--0--0--0--|--5--5--5--5--5--5--5--5--|

    E5                         A5
e|--------------------------|--------------------------|
B|--------------------------|--------------------------|
G|--------------------------|--------------------------|
D|--------------------------|--------------------------|
A|--7--7--7--7--6--6--6--6--|--6--6- 6--6--0--0--0--0--|
E|--0--0--0--0--0--0--0--0--|--5--5--5--5--7--7--7--7--| x2



[Verse]
E5                      A5
Force field supershield A A
E5                         A5
Junior high love affair is OK
E5                             A5
Jump on the big wagon cause im so Cal
    F#5    A5    B5  B5
I'm big in every way
    A5                       A5 B5
I'm running as fast as I can


[Chorus]
E5        B5              A5          B5
She goes above and beyond her call of duty
E5       B5           A5             B5
She is a slut but her ex thinks it's sexy
E5    B5           A5        B5
Sex reminds her of eating spaghetti
E    B5      A5      B5     E5 B5 A5 B5
I am wasted, but I'm ready


[Verse]
E                       A5
If you wanna move it so,  why don't you make it go
E                       A5
Prove to everybody who, doesn't understand
E                         A5
  All the nights, all the fights, You are out of sight
F#5         A5              B5  B5 B/G#
   Some say more with their hand.
    A5                       A5 B5
I'm running as fast as I can

[Chorus]
E         B5              A5          B5
She goes above and beyond her call of duty
E        B5           A5             B5
She is a slut but her ex thinks it's sexy
E     B5           A5        B5
Sex reminds her of eating spaghetti
E    B5      A5      B5     E5 B5 A5 B5
I am wasted, but I'm ready
E    B5      A5      B5
I am wasted, but I'm ready
E    B5      A5      B5
I am wasted, but I'm ready

[Bridge]
    G5         A5     E5    B5
I'm running as fast I can
    C5         D
I'm running as fast I run

[Solo]
   E5
e|--------------------------|--------------------------|
B|--------------------------|--------------------------|
G|--------------------------|--------------------------|
D|--------------------------|--------------------------|
A|--------------------------|--------------------------|
E|-0--0-x-x-x-x-0--0-x-x-x-x|-5--3--5--3--5--6--5--3---| x4

    E5                         A5
e|--------------------------|--------------------------|
B|--------------------------|--------------------------|
G|--------------------------|--------------------------|
D|--------------------------|--------------------------|
A|--7--7--7--7--6--6--6--6--|--6--6- 6--6--7--7--7--7--|
E|--0--0--0--0--0--0--0--0--|--5--5--5--5--5--5--5--5--|

    E5                         A5
e|--------------------------|--------------------------|
B|--------------------------|--------------------------|
G|--------------------------|--------------------------|
D|--------------------------|--------------------------|
A|--7--7--7--7--6--6--6--6--|--6--6- 6--6--0--0--7--6--|
E|--0--0--0--0--0--0--0--0--|--5--5--5--5--7--7--5--5--|

[Verse]
E                A5
Why am I dealing with this feeling?
E                  A5
I'm maxed out like a credit card
E                     A5
  I'll continue to be      my worst enemy
     F#5         A5           B5  B5 B/G#
It's easy but it     seems so hard
       A5                       A5 B5
You're near but you seem so far

[Chorus]
E         B5              A5          B5
She goes above and beyond her call of duty
E        B5           A5             B5
She is a slut but her ex thinks it's sexy
E     B5           A5        B5
Sex reminds her of eating spaghetti
E    B5      A5      B5
I am wasted, but I'm ready
E         B5              A5          B5
She goes above and beyond her call of duty
E        B5           A5             B5
She is a slut but her ex thinks it's sexy
E     B5           A5        B5
Sex reminds her of eating spaghetti
E    B5      A5      B5
I am wasted, but I'm ready

(Strum one times each chords)
E    B5      A5      B5
I am wasted, but I'm ready
E    B5      A5      B5
I am wasted, but I'm ready
E    B5      A5      B5
I am wasted, but I'm ready

E    B5      A5      B5
ha !!!!!!!!!!!!!!!

[Bridge]
    G5         A5     E5    B5
I'm running as fast I can
    C5         D5     E5   E5/G
I'm running as fast I run, can
    G5         A5     E5    B5
I'm running as fast I can
    C5         D5(let ring)     E5
I'm running as fast ...... as I can

            
            
Suggest correction
Creating personal tab
Creating personal tab
You can edit any tab online and save it as your Personal.

You can edit, replace or remove any tab part or add personal notes – all changes will be seen only by you.

Personal tabs can be accessed anytime from any device, even offline.
Learn more »
Give kudos to tab author, rate the tab!
1 2 3 4 5
comments
print report bad tab
guest
You may want to rate the tab now too:
select rating
Wanna post a correction for this tab? Suggest correction