Oops, an error
Loading. Please wait.

Love Me Like The World Is Ending Bass Tab

218 views 1 this week
no commentswrite comment
1 2 3 4 5
please rate
add to favorites
launch autoscroll
font size
0
reset
guitar tuner
Autoscroll
slow
fast
+/-
esc
set tempo
stop
Help us to improve Ultimate-Guitar.com Take our survey!
×
2 bars intro

Verse
E|---------------------------------------|
A|--0------------------------------------|
D|-------------------------0-------------|
G|---------------------------------------|

Chorus
E|---------------------------------------|\
A|--00000000-22222222-44444444-----------| \ on last
D|-----------------------------00000000--| / play A and let ring
G|---------------------------------------|/

post bridge
E|---------------------------------------|
A|---0-0-0-0-2-2-2-2---------------------|
D|---------------------------------------|
G|---------------------------------------|

Bridge
E|---------------------------------------|
A|----2-2-2-2-4-4-4-4--------------------|
D|--------------------0-0-0-0------------|
G|---------------------------------------|


Suggest correction
Give kudos to tab author, rate the tab!
1 2 3 4 5
comments
print report bad tab
guest
You may want to rate the tab now too:
select rating
Please do not post tabs as comments. Select "correction" instead!