Oops, an error
Loading. Please wait.

Love Me Like The World Is Ending Chords

version 2
version 2

Whole song

3,144 views 6 this week
1 commentread comment
1 2 3 4 5
please rate
add to favorites
launch autoscroll
font size
0
reset
transpose
0
reset
display chords
guitar tuner
Autoscroll
slow
fast
+/-
esc
set tempo
stop
Help us to improve Ultimate-Guitar.com Take our survey!
×
Contributor
Difficulty
Capo
mmazzini 205
novice
2nd fret

  This my 3rd tab so I hope you enjoy it.

Capo 2

E----------------------------------0---0-------------------------------|
B----------3---3-----------3---3-----------3---3-----------------------|
G--0---0-----------0---0-----------------------------------------------|
D----------------------------------------------------------------------|
A----------------------------------------------------------------------|
E----------------------------------------------------------------------|


repeat 3 times.


(VERSE 1)


G                               C

This is the first day of the future

G                  C

And all I want is you


G                              C

I wear a pair of socks you left here


G                                                C

But I know i know I know that nobody could ever fill your shoes

(CHORUS)


C               D                 G              C

I can see so clearly when your smoke gets in my eyes

C               D                   G               C

Please me with your promises and hurt me with your lies

C           D           G                C

Baby can you hear the message I am sending


C            D            G

Love me like the world is ending


(VERSE 2)


G                           C

This is the last day of existence.


G                  C


And all i want is you.


G                     C


There's a certain sadness.


G                                             C


But i know, i know, i know, the sky is what makes the ocean blue.


G                                         C


i know, i know, i know, the sky is what makes the ocean blue.


  (CHORUS)


C               D                 G              C

I can see so clearly when your smoke gets in my eyes

C               D                   G               C

Please me with your promises and hurt me with your lies

C           D           G                C

Baby can you hear the message I am sending


C            D            G

Love me like the world is ending

(VERSE 3)

    Em       D       C
And they all say to pour it has to rain

   Em       D              C                    G

So don't complain if we get wet in the deep end.


  (CHORUS)


C               D                 G              C

I can see so clearly when your smoke gets in my eyes

C               D                   G               C

Please me with your promises and hurt me with your lies

C           D           G                C

Baby can you hear the message I am sending


C            D            G

Love me like the world is ending


E----------------------------------0---0-------------------------------|
B----------3---3-----------3---3-----------3---3-----------------------|
G--0---0-----------0---0-----------------------------------------------|
D----------------------------------------------------------------------|
A----------------------------------------------------------------------|
E----------------------------------------------------------------------|

Fade out.
I hope you like it.
Suggest correction new What's this?
You can suggest a correction to this tab. Community and Mods will review your correction and vote to approve or reject it.
comments
We did not receive enough feedback on this tab! Please rate:
print report bad tab
1 2 3 4 5
1 comment total.
0 reply
--mattwashere-- 12 wrote on January 11 2011, 12:28 am

Great song!

guest
You may want to rate the tab now too:
select rating
Please do not post tabs as comments. Select "correction" instead!