Oops, an error
Loading. Please wait.

Sex Without Love Tab

version 2
version 2

Whole song

429 views 1 this week
no commentswrite comment
1 2 3 4 5
please rate
add to favorites
launch autoscroll
font size
0
reset
how to read this tab
guitar tuner
Tab Pro tools
  • play this tab
  • loop segment
  • change instrument
  • show fretboard
  • metronome
Autoscroll
slow
fast
+/-
esc
set tempo
stop
Difficulty
intermediate
Intro *N/C
Heaven's above, sex without love
I thought you wanted me, i thought you wanted me
Heaven's above, sex without love
I thought i wanted you, i thought i wanted you

Intro/Chorus
Distortion

     Cm   Fm   Gm    Cm
E|---3----1----3--3--3-3--|
B|---3----1----3--3--3-3--|
G|---5----1----3--3--5-5--|
D|---5----3----5--5--5-5--|
A|---3----3----5--5--3-3--|
E|--------1----3--3-------|
               ^  ^  ^ 
Verse 1
Clean
       Cm       Cm      Cm      Cm
E|------3-------3-------3-------3---|
B|------3-------3-------3-------3---|
G|------5-------5-------5-------5---|
D|------5-------5-------5-------5---|
A|--3-3-3-3-3-3-3-3-3-3-3-3-3-3-3---|
E|----------------------------------|
I   saw     you             At a
        Gm      Gm      Gm      Gm
E|------3-------3-------3-------3---|      
B|------3-------3-------3-------3---|
G|------3-------3-------3-------3---|
D|------5-------5-------5-------5---|
A|------5-------5-------5-------5---|
E|--3-3-3-3-3-3-3-3-3-3-3-3-3-3-3---|
    party                     And I
        Am      Am      Am      Am
E|------5-------5-------5-------5---|      
B|------5-------5-------5-------5---|
G|------5-------5-------5-------5---|
D|------7-------7-------7-------7---|
A|------7-------7-------7-------7---|
E|--5-5-5-5-5-5-5-5-5-5-5-5-5-5-5---|
   Asked you if you’d like the dance with me
You asked me
For a ride home
And I thought that I should take a chance on you




| /  slide up
| \  slide down
| h  hammer-on
| p  pull-off
| ~  vibrato
| +  harmonic
| x  Mute note
| ^  Strum up
comments
We did not receive enough feedback on this tab! Please rate:
print report bad tab
1 2 3 4 5
I want to post or [tab]
guest
You may want to rate the tab now too:
select rating
Please do not post tabs as comments. Select "correction" instead!