Oops, an error
Loading. Please wait.

Something Borrowed Something Blue Tab

2,118 views 6 this week
5 commentsread comments
1 2 3 4 5
x 7
add to favorites
launch autoscroll
font size
0
reset
how to read this tab
guitar tuner
Autoscroll
slow
fast
+/-
esc
set tempo
stop
Help us to improve Ultimate-Guitar.com Take our survey!
×
Author
Difficulty
-------------------------------------------------------------------------------
                  Something Borrowed Something Blue - BEN LEE
-------------------------------------------------------------------------------

Tabbed by: Anthony C (rhcp_guitarist@ Ultmate Guitar)

Key: b = bend   rb = reverse bend
Tuning:Standard (high to low - ebgdae)
Main Riff (repeat many times)
e|---------------------------------------|
B|---3------3b4rb3-3-------1---------1---|
G|---------------------------------------|
D|---------------------------------------|
A|-3----3---------------1----0-----------|
E|------------------------------1--------|

then when he is about to end a verse, you play:
e|-------------|
B|---1------1--|
G|-------------|
D|-------------|
A|-1---0-------|
E|-------1-----|

Chorus (heavy fuzz distortion)
   C5        Bb5  F5
e|----------------------------|
B|----------------------------|
G|-55555555--3333-------------|
D|-55555555--3333-3333--------| 3 times
A|-33333333--1111-3333--------|
E|----------------1111--------|
(I get the feeling i could leave you on the interstate)

then on the "Something Borrowed Something Blue" bit, play:
   Bb5   F5
e|-------------------|
B|-------------------|
G|-3333--------------|
D|-3333-3333---------|
A|-1111-3333---------|
E|------1111---------|

repeat verses and chorus again, only this time
on the "something Borrowed Something Blue" bit, play this
over the Bb5 and F5 powerchords a few times. 
B|-3b4-rb3----|

there is no guitar in the interlude

play the main riff a few more times, 
then the chorus a few times (with the b string bends
from the d to the d#)
End by playing the main riff over a C5 power chord. 
Thats it....pretty easy. Enjoy! -Anthony
Suggest correction
comments
print report bad tab
5 comments total. Showing first comments.
0 reply
rhcp_guitarist 238 Dec 27, 2004 12:00 AM, edited on November 9 2014, 09:41 pm

Revised Tab!

0 reply
TheFat1 10 May 15, 2006 11:33 PM

Main riff should also be Hammer-ons! Not just bending the string!

0 reply
tyler_j 1,519 Jun 27, 2007 04:29 AM

fantastic tab!

guest
You may want to rate the tab now too:
select rating
Wanna post a correction for this tab? Suggest correction