Oops, an error
Loading. Please wait.

Tornados Tab

510 views 1 this week
no commentswrite comment
1 2 3 4 5
please rate
add to favorites
launch autoscroll
font size
0
reset
how to read this tab
guitar tuner
Autoscroll
slow
fast
+/-
esc
set tempo
stop
Help us to improve Ultimate-Guitar.com Take our survey!
×
Difficulty
novice
Ben Lee - Tornados (live version by "the bens")
tabbed by Dennis Meinert

Hi everybody! I tabbed this song cause i couldn't find it in the www.
I'm sure that it is not correct, but this was my first tabbing after
a few month of playin the guitar. A beginners ear is a weak ear ;)
If anyone knows how to tab the thing during the F-Chord or the whole song, PLEASE email 
the corrected version --> xizzle@gmx.net
so far greets from duisburg, germany

Intro part:

Am            C             F       C
0--0----0-0-0-0----0-0----1--1-1-1--0-0-0-0--|
1--1----1-1-1-1----1-1----1--1-1-1--1-1-1-1--|
2--2----2-2-0-0----0-0----2--2-2-2--0-0-0-0--|
2--2----0-2-2-2----0-2----3--3-3-3--2-2-0-2--|
0--0----0-0-0-3----3-3----3--3-3-3--3-3-3-3--|
X--X----X-X-X-X----X-X----1--1-1-1--X-X-X-X--|     X2

Verse:

Am            C             F       C
0--0----0-0-0-0----0-0----1--1-1-1--0-0-0-0--|
1--1----1-1-1-1----1-1----1--1-1-1--1-1-1-1--|
2--2----2-2-0-0----0-0----2--2-2-2--0-0-0-0--|
2--2----0-2-2-2----0-2----3--3-3-3--2-2-0-2--|
0--0----0-0-0-3----3-3----3--3-3-3--3-3-3-3--|
X--X----X-X-X-X----X-X----1--1-1-1--X-X-X-X--|     X2


Chorus:

Am G F          X5


and so on...
Suggest correction
Give kudos to tab author, rate the tab!
1 2 3 4 5
comments
print report bad tab
guest
You may want to rate the tab now too:
select rating
Wanna post a correction for this tab? Suggest correction