Oops, an error
Loading. Please wait.

Wicked Way tab

version 3
version 3

Whole song

12,159 views 27 this week
no commentswrite comment
1 2 3 4 5
x 10
add to favorites
×
Save as Personal and add changes to this tab that will be seen only by you. Learn more ›
×
You can save this tab as Personal to edit and correct it or add notes. All changes will be seen only by you. Learn more »
launch autoscroll
font size
0
reset
how to read this tab
guitar tuner
edit
Autoscroll
slow
fast
+/-
esc
set tempo
stop
Wicked Way – Ben Taylor
Tabbed by: Bill Goers
Written by: Benjamin Taylor
Tuning: EADGBe
Tuning: Capo on 3rd fret 

As played on the album: The Legend of Kung Folk, Pt.1: The Killing Bite

The 1st string should ring throughout the song

[Intro]
e|---------0---------------0---------------0---------------0--------|
B|-----3-------0-------3-------0-------0-------0-------0-------0----|
G|---0---0---0---0---0---0---0---0---0---0---0---0---0---0---0---0--|
D|-5---------------4---------------2---------------4----------------|
A|------------------------------------------------------------------|
E|------------------------------------------------------------------|

[Verse]
e|---------0---------------0---------------0---------------0--------|
B|-----3-------0-------3-------0-------0-------0-------0-------0----|
G|---0---0---0---0---0---0---0---0---0---0---0---0---0---0---0---0--|
D|-5---------------4---------------2---------------4----------------|
A|------------------------------------------------------------------|
E|------------------------------------------------------------------|

e|---------0---------------0---------------0------------------------|
B|-----1-------1-------1-------1-------1-------1-------3-------3----|
G|---0---0---0---0---0---0---0---0---0---0---0---0---2---2---2------|
D|-------------------------------------------------0-------0--------|
A|-3---------------2---------------0--------------------------------|
E|------------------------------------------------------------------|

e|---------0---------------0---------------0---------------0--------|
B|-----3-------0-------3-------0-------0-------0-------0-------0----|
G|---0---0---0---0---0---0---0---0---0---0---0---0---0---0---0---0--|
D|-5---------------4---------------2---------------4----------------|
A|------------------------------------------------------------------|
E|------------------------------------------------------------------|

e|---------0---------------0---------------0------------------------|
B|-----1-------1-------1-------1-------1-------1-----3--------------|
G|---0---0---0---0---0---0---0---0---0---0---0---0---2--------------|
D|---------------------------------------------------0--------------|
A|-3---------------2---------------0--------------------------------|
E|------------------------------------------------------------------|

[Chorus]
e|------------------------------------------------------------------|
B|-----3-------3-------3---------------1-------1-------1-------1----|
G|---0---0---0---0---0---0---0---0---0---0---0---0---0---0---0---0--|
D|------------------------------------------------------------------|
A|-------------------------0---2---3-------3-------2-------2--------|
E|-3-------3-------3------------------------------------------------|

e|------------------------------------------------------------------|
B|-----1-------1-------1-------1-------1-------1-------1-------1----|
G|---0---0---0---0---0---0---0---0---0---0---0---0---0---0---0---0--|
D|------------------------------------------------------------------|
A|-0-------0-------2-------2-------3-------3-------2-------2--------|
E|------------------------------------------------------------------|

e|-----------------3---------------3------------|
B|-3---3-------3-------3-------3-------3--------|
G|-0---2-----0---0---0---0---0---0---0---0------|
D|-----0---5---------------5--------------------|
A|-0--------------------------------------------|
E|----------------------------------------------|

[Outro]
e|---------3---------------------0---------3---------------------2--|
B|-----3-------3-------3-------3-------3-------3-------3-------3----|
G|---0---0---0---0---0---0---2-------0---0---0---0---0---0---2------|
D|-5---------------5-------0-------5---------------5-------0--------|
A|------------------------------------------------------------------|
E|------------------------------------------------------------------|

[Lyrics]
[Verse 1]
Well, I just want to take you out and get you drunk 
So I can have my wicked way with you 
I’m just being honest 'cause I know the other guys 
Are thinking just the same way too 
And I’m not gonna lie and say 
That I will take you out to dance, there's just no chance 
'Cause I don't even like the same music you do 
I just want to have my wicked way with you 

[Chorus]
Girl, don't you fight it 
Cause I know you’re gonna like it 
Show me some skin, I might bite it 
I want to have my wicked way with you 

[Verses 2 & 3]
I'm not gonna come over and meet your Mom and Dad 
They know that I was bad 
I don't want to meet your friends 
Or just pretend I like you 
And I don't want to talk about what happened 
On your favorite TV show 
I just wanna get you close enough 
So I can take off all your clothes 
And I don't want to make you cry or break your heart 
Girl, we don't have the time 
I'm just thinking of three hours or more 
So I can have my wicked way with you 

[Chorus]
No, don't you fight it 
Don’t knock it till you’ve tried it 
Show me some skin, I might bite it 
I want to have my wicked way with you

[Outro]
My wicked way with you
My wicked way with you
Suggest correction
Creating personal tab
Creating personal tab
You can edit any tab online and save it as your Personal.

You can edit, replace or remove any tab part or add personal notes – all changes will be seen only by you.

Personal tabs can be accessed anytime from any device, even offline.
Learn more »
comments
print report bad tab
guest
You may want to rate the tab now too:
select rating
Wanna post a correction for this tab? Suggest correction