Oops, an error
Loading. Please wait.

Comforting Predjudice tab

9,871 views 1 this week
8 commentsread comments
1 2 3 4 5
x 3
add to favorites
×
Save as Personal and add changes to this tab that will be seen only by you. Learn more ›
×
You can save this tab as Personal to edit and correct it or add notes. All changes will be seen only by you. Learn more »
launch autoscroll
font size
0
reset
how to read this tab
guitar tuner
edit
Autoscroll
slow
fast
+/-
esc
set tempo
stop
Author
Difficulty
[Intro]
e|-t15-9p=6----------------------------|
B|----------t15-11p=8------------------|
G|--------------------t15--9p=6--------|
D|-------------------------------------|(Guitar 1)
A|-------------------------------------|
E|-------------------------------3--2--|
B|-------------------------------3--2--|
                                     
e|-t18-12p=9---------------------------|
B|-----------t18-14p11-----------------|
G|---------------------t18-12p=9-------|
D|-------------------------------------|(Guitar 2)
A|-------------------------------------|
E|-------------------------------3--2--|
B|-------------------------------3--2--|
                                    
e|-t20-12p=9---------------------------|
B|-t22-14p11-t20-12p=9-----------------|
G|-----------t22-14p11-t20-12p=9-------|
D|---------------------t22-14p11-------|(harmonisations)
A|-------------------------------------|
E|-------------------------------3--2--|
B|-------------------------------3--2--|

[Riff 1] 
(x4)
e|-------------------------------|
B|-------------------------------|
G|o-----------------------------o|
D|--------------------11-11------|
A|o-7-7-10-10-------------------o|
E|------------9-9-9-9------------|
B|--------------------------9-9--|
                                
e|-------------------------------|
B|-------------------------------|
G|o-----------------------------o|
D|---------------------8--8------|
A|o-4-4--7--7-------------------o|
E|------------6-6-6-6------------|
B|--------------------------6-6--|

(Pick tepping section (T-pick tapping))
   T  T  T    T  T  T     T  T  T    T  T  T
e|-15-15-15-9-------------10-10-10-4------------|
B|------------17-17-17-11-----------------------|
G|-----------------------------------10-10-10-4-|
D|----------------------------------------------|
A|----------------------------------------------|
E|----------------------------------------------|
B|----------------------------------------------|

 T  T  T    T  T  T    T  T  T    T  T  T
e|-------------------------------------------|
B|-11-11-11-5--------------------------------|
G|-----------------------11-11-11-5----------|
D|------------11-11-11-5---------------------|
A|----------------------------------9-9-9-3--|
E|-------------------------------------------|
B|-------------------------------------------|

[Riff 2] (x3)
e|------------------------------|-----------------------------|
B|------------------------------|-----------------------------|
G|o-----------------------------|-----------------------------|
D|--------------------11-11-----|-------------------11-11-----|
A|o-7-7-10-10-------------------|-7-7-10-10-------------------|
E|------------9-9-9-9-----------|-----------9-9-9-9-----------|
B|--------------------------6-6-|-------------------------6-6-|

e|------------------------------|-----------------------------|
B|------------------------------|-----------------------------|
G|o-----------------------------|-----------------------------|
D|---------------------8--8-----|--------------------8--8-----|
A|o-4-4--7--7-------------------|-4-4--7--7-------------------|
E|------------6-6-6-6-----------|-----------6-6-6-6-----------|
B|--------------------------6-6-|-------------------------6-6-|

e|-----------------------------|--------------------------|
B|-----------------------------|--------------------------|
G|-----------------------------|-------------------------o|
D|-------------------11-11-----|-------------------11-11--|
A|-7-7-10-10-------------------|-7-7-10-10---------------o|
E|-----------9-9-9-9-----------|-----------9-9-9-9--------|
B|-------------------------6-6-|--------------------------|

e|-----------------------------|--------------------------|
B|-----------------------------|--------------------------|
G|-----------------------------|-------------------------o|
D|--------------------8--8-----|--------------------8--8--|
A|-4-4--7--7-------------------|-4-4--7--7---------------o|
E|-----------6-6-6-6-----------|-----------6-6-6-6--------|
B|-------------------------6-6-|--------------------------|

[Riff 3]
                                 (4x)                                      (4x)
e|-------------------------------|-|-----------------------------------|
B|-------------------------------|-|-----------------------------------|
G|o--------------------9--9-----o|-|o-----------------------12-12-----o|
D|--5-5--8--8--------------------|-|--8-8-11-11------------------------|
A|o-----------7-7-7-7-----------o|-|o-----------10-10-10-10-----------o|
E|--------------------------4-4--|-|------------------------------7-7--|
B|-------------------------------|-|-----------------------------------|

                                 (4x)                                      (4x)
e|-------------------------------|-|-----------------------------------|
B|-------------------------------|-|-----------------------------------|
G|o-----------------------------o|-|o------------------------9--9-----o|
D|--------------------11-11------|-|--5-5--8--8------------------------|
A|o-7-7-10-10-------------------o|-|o------------7--7--7--7-----------o|
E|------------9-9-9-9------------|-|------------------------------4-4--|
B|--------------------------6-6--|-|-----------------------------------|


[Riff 4] (x4)
e|----------------------------------------|
B|----------------------------------------|
G|o---------7p4p1-------------------------|
D|-----------------7-4p1------------------|
A|o---------------------------------------|
E|----------------------------------------|
B|--1-1-1----------------1-1-1--1-1-1--0--|
    . . .                . . .  . . .  .  

e|----------------------------------------|
B|----------------------------------------|
G|o--------10p7p4-------------------------|
D|----------------10p7p4------------------|
A|o---------------------------------------|
E|----------------------------------------|
B|--1-1-1----------------1-1-1--1-1-1--0--|
    . . .                . . .  . . .  .

e|---------------------------------------t8p5p2----------------|
B|--------------------------------t9p6p3--------t9p6p3---------|
G|-----------t7p4p1--------t7p4p1----------------------t7p4p1-o|
D|------------------t7p4p1-------------------------------------|
A|------------------------------------------------------------o|
E|-------------------------------------------------------------|
B|-1-1-1--0----------------------------------------------------|
   . . .  .                                     
                
e|--------------------------------------t11p8p5----------------|
B|-------------------------------t12p9p6-------t12p9p6---------|
G|----------t10p7p4-------t10p7p4---------------------t10p7p4-o|
D|-----------------t10p7p4-------------------------------------|
A|------------------------------------------------------------o|
E|-------------------------------------------------------------|
B|-1-1-1--0----------------------------------------------------|
   . . .  .

[Riff 5] (x8)
e|------------------------------|
B|------------------------------|
G|o----------------------------o|
D|------------------------------|
A|o----------------------------o|
E|------------------------------|
B|--2-2-1--0--1-0-0--2-2-1--0---|
    . . .  .  . . .  . . .  .

[Riff 6] (x2)
e|----------------------------------------------------|
B|----------------------------------------------------|
G|o-------------------------------5-5-6-6-5-5-6-6----o|
D|--------------4--------------4--4-4-5-5-4-4-5-5-----|
A|o-------------3--------------3---------------------o|
E|--------------2--------------2----------------------|
B|--1-1-1-0-0-0----1-1-1-0-0-0------------------------|
    . . . . . .    . . . . . .                         

e|----------------------------------------------------|
B|----------------------------------------------------|
G|o-------------------------------5-5-6-6-5-5-6-6----o|
D|--------------4--------------4--4-4-5-5-4-4-5-5-----|
A|o-------------3--------------3---------------------o|
E|--------------2--------------2----------------------|
B|--1-1-1-0-0-0----1-1-1-0-0-0------------------------|
    . . . . . .    . . . . . .

[Riff 7] (x2)
e|------------------------------------------------------------------|
B|------------------------------------------------------------------|
G|o-8-8-8-8---------------------------------------------------------|
D|----------7-7-7-7---------7-7-7-7-------------------------7-7-7-7-|
A|o---------------------------------6-6-6-6---------6-6-6-6---------|
E|------------------5-5-5-5-----------------5-5-5-5-----------------|
B|------------------------------------------------------------------|

e|------------------------------------------------------------------|
B|------------------------------------------------------------------|
G|o-5-5-5-5---------------------------------------------------------|
D|----------4-4-4-4---------4-4-4-4-------------------------4-4-4-4-|
A|o---------------------------------3-3-3-3---------3-3-3-3---------|
E|------------------2-2-2-2-----------------2-2-2-2-----------------|
B|------------------------------------------------------------------|

e|---------------------------------|
B|---------------------------------|
G|------------5-5-5-5-6-6-6-6-----o|
D|------------4-4-4-4-5-5-5-5------|
A|--------------------------------o|
E|-5-5-5-5-5-----------------------|
B|---------------------------------|
                                 
e|---------------------------------|
B|---------------------------------|
G|------------5-5-5-5-6-6-6-6-----o|
D|------------4-4-4-4-5-5-5-5------|
A|--------------------------------o|
E|-2-2-2-2-2-----------------------|
B|---------------------------------|

[Riff 8] (x4)
e|-------------------------------------------------|-------------------------|
B|-------------------------------------------------|-------------------------|
G|o-5-5-5-5-6-6-6-6-----8--------------------------|------------------------o|
D|--4-4-4-4-5-5-5-5---7---7---7------------7-7-7-7-|-------------------------|
A|o-----------------6-------6---6--3-3-3-3---------|-6-6-6-6--------6-------o|
E|---------------------------------2-2-2-2---------|--------------5---5------|
B|-------------------------------------------------|---------0--4------------|

e|-------------------------------------------------|-------------------------|
B|-------------------------------------------------|-------------------------|
G|o-5-5-5-5-6-6-6-6-----5--------------------------|------------------------o|
D|--4-4-4-4-5-5-5-5---4---4---4------------4-4-4-4-|-------------------------|
A|o-----------------3-------3---3--3-3-3-3---------|-3-3-3-3--------3-------o|
E|---------------------------------2-2-2-2---------|--------------2---2------|
B|-------------------------------------------------|---------0--1------------|

[Riff 9] (x4)
e|-----------------------------------------|
B|-----------------------------------------|
G|o----------------------------------------|
D|-----------------------------------------|
A|o----------------------------------------|
E|-----------------------------------------|
B|--1-1-4--1-1-1-1-1-1-1-1-1-1-1-1---1-1-4-|
   . . .  . . . . . . . . . . . .   . . .

e|---------------------------------------------|
B|---------------------------------------------|
G|--------------------------------------------o|
D|---------------------------------------------|
A|--------------------------------------------o|
E|---------------------------------------------|
B|-1-1-4--1-1-1-1-1-1-1-1---1-1-1-1-1-1-1-1----|
   . . .  . . . . . . . .   . . . . . . . .

[Riff 10] (x2)
e|----------------------------------|-------------------------|
B|----------------------4-4---------|-------------------------|
G|o---------------------5-5---------|-------------------------|
D|--------------4-----------7-7-4-4-|-7-4-------4-7-4-------4-|
A|o---3-6-----6---6---6-------------|-----6-3-6-------6-3-6---|
E|--5-----5-5-------5---------------|-------------------------|
B|----------------------------------|-------------------------|

e|-------------------------------|-------------------------------|
B|---------------------7-7-------|-------------------------------|
G|---------------------8-8-11-11-|-11-8-------------8-----------o|
D|-------------7-----------------|------10-7---7-10---10---7-10--|
A|---6-9-----9---9---9-----------|-----------9-----------9------o|
E|-8-----8-8-------8-------------|-------------------------------|
B|-------------------------------|-------------------------------|

[Riff 9] (x8)
e|-----------------------------------------|
B|-----------------------------------------|
G|o----------------------------------------|
D|-----------------------------------------|
A|o----------------------------------------|
E|-----------------------------------------|
B|--1-1-4--1-1-1-1-1-1-1-1-1-1-1-1---1-1-4-|
   . . .  . . . . . . . . . . . .   . . .

e|---------------------------------------------|
B|---------------------------------------------|
G|--------------------------------------------o|
D|---------------------------------------------|
A|--------------------------------------------o|
E|---------------------------------------------|
B|-1-1-4--1-1-1-1-1-1-1-1---1-1-1-1-1-1-1-1----|
   . . .  . . . . . . . .   . . . . . . . .


************************************

| t  Tapping
| p  Pull-off
| .  Staccato

************************************

            
            
Suggest correction
Creating personal tab
Creating personal tab
You can edit any tab online and save it as your Personal.

You can edit, replace or remove any tab part or add personal notes – all changes will be seen only by you.

Personal tabs can be accessed anytime from any device, even offline.
Learn more »
Give kudos to tab author, rate the tab!
1 2 3 4 5
comments
print report bad tab
8 comments total. Showing first comments.
+1 reply
ConquerorWyrm 10 Apr 02, 2007 12:32 AM

friggin' sick tab dude
sounds just like it
amazing band btw

+1 reply
Necrophagistsex 136 Apr 02, 2007 02:59 PM

Thanks and yes they are.

+1 reply
Necrophagistsex 136 Apr 02, 2007 02:59 PM

And abigail williams kicks ass as well as Vehemence

guest
You may want to rate the tab now too:
select rating
Wanna post a correction for this tab? Suggest correction